  0
SECTION
  2
HEADER
  9
$ACADVER
  1
AC1015
  9
$ACADMAINTVER
 70
     6
  9
$DWGCODEPAGE
  3
ANSI_1254
  9
$INSBASE
 10
0.0
 20
0.0
 30
0.0
  9
$EXTMIN
 10
0.0
 20
0.0
 30
0.0
  9
$EXTMAX
 10
279.4
 20
215.9
 30
0.0
  9
$LIMMIN
 10
0.0
 20
0.0
  9
$LIMMAX
 10
279.4
 20
215.9
  9
$ORTHOMODE
 70
     0
  9
$REGENMODE
 70
     1
  9
$FILLMODE
 70
     1
  9
$QTEXTMODE
 70
     0
  9
$MIRRTEXT
 70
     1
  9
$LTSCALE
 40
1.0
  9
$ATTMODE
 70
     1
  9
$TEXTSIZE
 40
3.5
  9
$TRACEWID
 40
1.0
  9
$TEXTSTYLE
  7
Standard
  9
$CLAYER
  8
0
  9
$CELTYPE
  6
ByLayer
  9
$CECOLOR
 62
   256
  9
$CELTSCALE
 40
1.0
  9
$DISPSILH
 70
     0
  9
$DIMSCALE
 40
1.0
  9
$DIMASZ
 40
3.5
  9
$DIMEXO
 40
1.0
  9
$DIMDLI
 40
3.75
  9
$DIMRND
 40
0.0
  9
$DIMDLE
 40
0.0
  9
$DIMEXE
 40
1.0
  9
$DIMTP
 40
0.0
  9
$DIMTM
 40
0.0
  9
$DIMTXT
 40
3.5
  9
$DIMCEN
 40
2.5
  9
$DIMTSZ
 40
0.0
  9
$DIMTOL
 70
     0
  9
$DIMLIM
 70
     0
  9
$DIMTIH
 70
     1
  9
$DIMTOH
 70
     1
  9
$DIMSE1
 70
     0
  9
$DIMSE2
 70
     0
  9
$DIMTAD
 70
     1
  9
$DIMZIN
 70
     0
  9
$DIMBLK
  1

  9
$DIMASO
 70
     1
  9
$DIMSHO
 70
     1
  9
$DIMPOST
  1

  9
$DIMAPOST
  1

  9
$DIMALT
 70
     0
  9
$DIMALTD
 70
     3
  9
$DIMALTF
 40
0.0393700787
  9
$DIMLFAC
 40
1.0
  9
$DIMTOFL
 70
     1
  9
$DIMTVP
 40
0.0
  9
$DIMTIX
 70
     0
  9
$DIMSOXD
 70
     0
  9
$DIMSAH
 70
     0
  9
$DIMBLK1
  1

  9
$DIMBLK2
  1

  9
$DIMSTYLE
  2
ISO-25
  9
$DIMCLRD
 70
     0
  9
$DIMCLRE
 70
     0
  9
$DIMCLRT
 70
     0
  9
$DIMTFAC
 40
1.0
  9
$DIMGAP
 40
1.524
  9
$DIMJUST
 70
     0
  9
$DIMSD1
 70
     0
  9
$DIMSD2
 70
     0
  9
$DIMTOLJ
 70
     0
  9
$DIMTZIN
 70
     0
  9
$DIMALTZ
 70
     0
  9
$DIMALTTZ
 70
     0
  9
$DIMUPT
 70
     0
  9
$DIMDEC
 70
     2
  9
$DIMTDEC
 70
     2
  9
$DIMALTU
 70
     2
  9
$DIMALTTD
 70
     3
  9
$DIMTXSTY
  7
Standard
  9
$DIMAUNIT
 70
     0
  9
$DIMADEC
 70
     2
  9
$DIMALTRND
 40
0.0
  9
$DIMAZIN
 70
     0
  9
$DIMDSEP
 70
    44
  9
$DIMATFIT
 70
     3
  9
$DIMFRAC
 70
     0
  9
$DIMLDRBLK
  1

  9
$DIMLUNIT
 70
     2
  9
$DIMLWD
 70
    -2
  9
$DIMLWE
 70
    -2
  9
$DIMTMOVE
 70
     0
  9
$LUNITS
 70
     2
  9
$LUPREC
 70
     2
  9
$SKETCHINC
 40
1.0
  9
$FILLETRAD
 40
10.0
  9
$AUNITS
 70
     0
  9
$AUPREC
 70
     2
  9
$MENU
  1
.
  9
$ELEVATION
 40
0.0
  9
$PELEVATION
 40
0.0
  9
$THICKNESS
 40
0.0
  9
$LIMCHECK
 70
     0
  9
$CHAMFERA
 40
0.0
  9
$CHAMFERB
 40
0.0
  9
$CHAMFERC
 40
0.0
  9
$CHAMFERD
 40
0.0
  9
$SKPOLY
 70
     0
  9
$TDCREATE
 40
2459741.592408275
  9
$TDUCREATE
 40
2459741.467408275
  9
$TDUPDATE
 40
2459741.592409873
  9
$TDUUPDATE
 40
2459741.467409873
  9
$TDINDWG
 40
0.0000000116
  9
$TDUSRTIMER
 40
0.0000000116
  9
$USRTIMER
 70
     1
  9
$ANGBASE
 50
0.0
  9
$ANGDIR
 70
     0
  9
$PDMODE
 70
     0
  9
$PDSIZE
 40
-1.0
  9
$PLINEWID
 40
0.0
  9
$SPLFRAME
 70
     0
  9
$SPLINETYPE
 70
     6
  9
$SPLINESEGS
 70
     8
  9
$HANDSEED
  5
11E
  9
$SURFTAB1
 70
     6
  9
$SURFTAB2
 70
     6
  9
$SURFTYPE
 70
     6
  9
$SURFU
 70
     6
  9
$SURFV
 70
     6
  9
$UCSBASE
  2

  9
$UCSNAME
  2

  9
$UCSORG
 10
0.0
 20
0.0
 30
0.0
  9
$UCSXDIR
 10
1.0
 20
0.0
 30
0.0
  9
$UCSYDIR
 10
0.0
 20
1.0
 30
0.0
  9
$UCSORTHOREF
  2

  9
$UCSORTHOVIEW
 70
     0
  9
$UCSORGTOP
 10
0.0
 20
0.0
 30
0.0
  9
$UCSORGBOTTOM
 10
0.0
 20
0.0
 30
0.0
  9
$UCSORGLEFT
 10
0.0
 20
0.0
 30
0.0
  9
$UCSORGRIGHT
 10
0.0
 20
0.0
 30
0.0
  9
$UCSORGFRONT
 10
0.0
 20
0.0
 30
0.0
  9
$UCSORGBACK
 10
0.0
 20
0.0
 30
0.0
  9
$PUCSBASE
  2

  9
$PUCSNAME
  2

  9
$PUCSORG
 10
0.0
 20
0.0
 30
0.0
  9
$PUCSXDIR
 10
1.0
 20
0.0
 30
0.0
  9
$PUCSYDIR
 10
0.0
 20
1.0
 30
0.0
  9
$PUCSORTHOREF
  2

  9
$PUCSORTHOVIEW
 70
     0
  9
$PUCSORGTOP
 10
0.0
 20
0.0
 30
0.0
  9
$PUCSORGBOTTOM
 10
0.0
 20
0.0
 30
0.0
  9
$PUCSORGLEFT
 10
0.0
 20
0.0
 30
0.0
  9
$PUCSORGRIGHT
 10
0.0
 20
0.0
 30
0.0
  9
$PUCSORGFRONT
 10
0.0
 20
0.0
 30
0.0
  9
$PUCSORGBACK
 10
0.0
 20
0.0
 30
0.0
  9
$USERI1
 70
     0
  9
$USERI2
 70
     0
  9
$USERI3
 70
     0
  9
$USERI4
 70
     0
  9
$USERI5
 70
     0
  9
$USERR1
 40
0.0
  9
$USERR2
 40
0.0
  9
$USERR3
 40
0.0
  9
$USERR4
 40
0.0
  9
$USERR5
 40
0.0
  9
$WORLDVIEW
 70
     1
  9
$SHADEDGE
 70
     3
  9
$SHADEDIF
 70
    70
  9
$TILEMODE
 70
     1
  9
$MAXACTVP
 70
    64
  9
$PINSBASE
 10
0.0
 20
0.0
 30
0.0
  9
$PLIMCHECK
 70
     0
  9
$PEXTMIN
 10
1.0000000000E+20
 20
1.0000000000E+20
 30
1.0000000000E+20
  9
$PEXTMAX
 10
-1.0000000000E+20
 20
-1.0000000000E+20
 30
-1.0000000000E+20
  9
$PLIMMIN
 10
0.0
 20
0.0
  9
$PLIMMAX
 10
420.0
 20
297.0
  9
$UNITMODE
 70
     0
  9
$VISRETAIN
 70
     1
  9
$PLINEGEN
 70
     0
  9
$PSLTSCALE
 70
     1
  9
$TREEDEPTH
 70
  3020
  9
$CMLSTYLE
  2
Standard
  9
$CMLJUST
 70
     0
  9
$CMLSCALE
 40
20.0
  9
$PROXYGRAPHICS
 70
     1
  9
$MEASUREMENT
 70
     1
  9
$CELWEIGHT
370
    -1
  9
$ENDCAPS
280
     0
  9
$JOINSTYLE
280
     0
  9
$LWDISPLAY
290
     1
  9
$INSUNITS
 70
     4
  9
$HYPERLINKBASE
  1

  9
$STYLESHEET
  1

  9
$XEDIT
290
     1
  9
$CEPSNTYPE
380
     0
  9
$PSTYLEMODE
290
     1
  9
$FINGERPRINTGUID
  2
{3428d5c9-5856-4aa2-a0b5-a3ef2128ad4e}
  9
$VERSIONGUID
  2
{FAEB1C32-E019-11D5-929B-00C0DF256EC4}
  9
$EXTNAMES
290
     1
  9
$PSVPSCALE
 40
0.0
  9
$OLESTARTUP
290
     0
  0
ENDSEC
  0
SECTION
  2
CLASSES
  0
CLASS
  1
ACDBDICTIONARYWDFLT
  2
AcDbDictionaryWithDefault
  3
ObjectDBX Classes
 90
        0
280
     0
281
     0
  0
CLASS
  1
VISUALSTYLE
  2
AcDbVisualStyle
  3
ObjectDBX Classes
 90
     4095
280
     0
281
     0
  0
CLASS
  1
MATERIAL
  2
AcDbMaterial
  3
ObjectDBX Classes
 90
     1153
280
     0
281
     0
  0
CLASS
  1
SCALE
  2
AcDbScale
  3
ObjectDBX Classes
 90
     1153
280
     0
281
     0
  0
CLASS
  1
TABLESTYLE
  2
AcDbTableStyle
  3
ObjectDBX Classes
 90
     4095
280
     0
281
     0
  0
CLASS
  1
MLEADERSTYLE
  2
AcDbMLeaderStyle
  3
ACDB_MLEADERSTYLE_CLASS
 90
     4095
280
     0
281
     0
  0
CLASS
  1
SUN
  2
AcDbSun
  3
SCENEOE
 90
     1153
280
     0
281
     0
  0
CLASS
  1
ACDBPLACEHOLDER
  2
AcDbPlaceHolder
  3
ObjectDBX Classes
 90
        0
280
     0
281
     0
  0
CLASS
  1
LAYOUT
  2
AcDbLayout
  3
ObjectDBX Classes
 90
        0
280
     0
281
     0
  0
ENDSEC
  0
SECTION
  2
TABLES
  0
TABLE
  2
VPORT
  5
8
330
0
100
AcDbSymbolTable
 70
     1
  0
VPORT
  5
29
330
8
100
AcDbSymbolTableRecord
100
AcDbViewportTableRecord
  2
*Active
 70
     0
 10
0.0
 20
0.0
 11
1.0
 21
1.0
 12
139.7
 22
107.95
 13
0.0
 23
0.0
 14
10.0
 24
10.0
 15
10.0
 25
10.0
 16
0.0
 26
0.0
 36
1.0
 17
0.0
 27
0.0
 37
0.0
 40
215.9
 41
1.2941176471
 42
50.0
 43
0.0
 44
0.0
 50
0.0
 51
0.0
 71
     0
 72
  2000
 73
     1
 74
     3
 75
     0
 76
     0
 77
     0
 78
     0
281
     0
 65
     1
110
0.0
120
0.0
130
0.0
111
1.0
121
0.0
131
0.0
112
0.0
122
1.0
132
0.0
 79
     0
146
0.0
  0
ENDTAB
  0
TABLE
  2
LTYPE
  5
5
330
0
100
AcDbSymbolTable
 70
     6
  0
LTYPE
  5
14
330
5
100
AcDbSymbolTableRecord
100
AcDbLinetypeTableRecord
  2
ByBlock
 70
     0
  3

 72
    65
 73
     0
 40
0.0
  0
LTYPE
  5
15
330
5
100
AcDbSymbolTableRecord
100
AcDbLinetypeTableRecord
  2
ByLayer
 70
     0
  3

 72
    65
 73
     0
 40
0.0
  0
LTYPE
  5
16
330
5
100
AcDbSymbolTableRecord
100
AcDbLinetypeTableRecord
  2
Continuous
 70
     0
  3
Solid line
 72
    65
 73
     0
 40
0.0
  0
LTYPE
  5
6E
330
5
100
AcDbSymbolTableRecord
100
AcDbLinetypeTableRecord
  2
HIDDEN
 70
     0
  3
Hidden __ __ __ __ __ __ __ __ __ __ __ __ __ __
 72
    65
 73
     2
 40
1.905
 49
1.27
 74
     0
 49
-0.635
 74
     0
  0
LTYPE
  5
6F
330
5
100
AcDbSymbolTableRecord
100
AcDbLinetypeTableRecord
  2
PHANTOM
 70
     0
  3
Phantom ______  __  __  ______  __  __  ______
 72
    65
 73
     6
 40
12.7
 49
6.35
 74
     0
 49
-1.27
 74
     0
 49
1.27
 74
     0
 49
-1.27
 74
     0
 49
1.27
 74
     0
 49
-1.27
 74
     0
  0
LTYPE
  5
70
330
5
100
AcDbSymbolTableRecord
100
AcDbLinetypeTableRecord
  2
CENTER
 70
     0
  3
Center ____ _ ____ _ ____ _ ____ _ ____ _ ____
 72
    65
 73
     4
 40
10.16
 49
6.35
 74
     0
 49
-1.27
 74
     0
 49
1.27
 74
     0
 49
-1.27
 74
     0
  0
LTYPE
  5
71
330
5
100
AcDbSymbolTableRecord
100
AcDbLinetypeTableRecord
  2
CENTERX2
 70
     0
  3
Center (2x) ________  __  ________  __  _____
 72
    65
 73
     4
 40
20.32
 49
12.7
 74
     0
 49
-2.54
 74
     0
 49
2.54
 74
     0
 49
-2.54
 74
     0
  0
LTYPE
  5
72
330
5
100
AcDbSymbolTableRecord
100
AcDbLinetypeTableRecord
  2
DOT2
 70
     0
  3
Dot (.5x) ........................................
 72
    65
 73
     2
 40
0.635
 49
0.0
 74
     0
 49
-0.635
 74
     0
  0
ENDTAB
  0
TABLE
  2
LAYER
  5
2
330
0
100
AcDbSymbolTable
 70
    17
  0
LAYER
  5
10
330
2
100
AcDbSymbolTableRecord
100
AcDbLayerTableRecord
  2
0
 70
     0
 62
     7
  6
Continuous
370
    -3
390
F
  0
LAYER
  5
73
330
2
100
AcDbSymbolTableRecord
100
AcDbLayerTableRecord
  2
FORMAT
 70
     0
 62
     7
  6
Continuous
370
    -3
390
F
  0
LAYER
  5
74
330
2
100
AcDbSymbolTableRecord
100
AcDbLayerTableRecord
  2
YARDIMCI_GEOMETRI
 70
     0
 62
    -6
  6
Continuous
290
     0
370
    -3
390
F
  0
LAYER
  5
75
330
2
100
AcDbSymbolTableRecord
100
AcDbLayerTableRecord
  2
SAYFA_CERCEVESI
 70
     0
 62
     7
  6
Continuous
370
    25
390
F
  0
LAYER
  5
76
330
2
100
AcDbSymbolTableRecord
100
AcDbLayerTableRecord
  2
ANTET
 70
     0
 62
     7
  6
Continuous
370
    -3
390
F
  0
LAYER
  5
77
330
2
100
AcDbSymbolTableRecord
100
AcDbLayerTableRecord
  2
OLCU
 70
     0
 62
   150
  6
Continuous
370
    -3
390
F
  0
LAYER
  5
78
330
2
100
AcDbSymbolTableRecord
100
AcDbLayerTableRecord
  2
METIN
 70
     0
 62
    96
  6
Continuous
370
    -3
390
F
  0
LAYER
  5
79
330
2
100
AcDbSymbolTableRecord
100
AcDbLayerTableRecord
  2
BALON
 70
     0
 62
     5
  6
Continuous
370
    -3
390
F
  0
LAYER
  5
7A
330
2
100
AcDbSymbolTableRecord
100
AcDbLayerTableRecord
  2
VURGU
 70
     0
 62
     7
  6
Continuous
370
    -3
390
F
  0
LAYER
  5
7B
330
2
100
AcDbSymbolTableRecord
100
AcDbLayerTableRecord
  2
SILIK
 70
     0
 62
     7
  6
Continuous
370
    -3
390
F
  0
LAYER
  5
7C
330
2
100
AcDbSymbolTableRecord
100
AcDbLayerTableRecord
  2
MODEL
 70
     0
 62
     7
  6
Continuous
370
    -3
390
F
  0
LAYER
  5
7D
330
2
100
AcDbSymbolTableRecord
100
AcDbLayerTableRecord
  2
DETAYLANDıRMA
 70
     0
 62
   190
  6
Continuous
370
    -3
390
F
  0
LAYER
  5
7E
330
2
100
AcDbSymbolTableRecord
100
AcDbLayerTableRecord
  2
TOLERANS
 70
     0
 62
   230
  6
Continuous
370
    -3
390
F
  0
LAYER
  5
7F
330
2
100
AcDbSymbolTableRecord
100
AcDbLayerTableRecord
  2
MERKEZ_CIZGILERI
 70
     0
 62
    30
  6
Continuous
370
    -3
390
F
  0
LAYER
  5
80
330
2
100
AcDbSymbolTableRecord
100
AcDbLayerTableRecord
  2
KESIT-DETAY_CIZGILERI
 70
     0
 62
     7
  6
Continuous
370
    -3
390
F
  0
LAYER
  5
81
330
2
100
AcDbSymbolTableRecord
100
AcDbLayerTableRecord
  2
\U+041E\U+0421\U+0415\U+0412\U+042B\U+0415
 70
     0
 62
     7
  6
Continuous
370
    -3
390
F
  0
LAYER
  5
82
330
2
100
AcDbSymbolTableRecord
100
AcDbLayerTableRecord
  2
\U+0412\U+041E\U+0414\U+042F\U+041D\U+042B\U+0415_\U+0417\U+041D\U+0410\U+041A\U+0418
 70
     0
 62
    11
  6
Continuous
370
    -3
390
F
  0
ENDTAB
  0
TABLE
  2
STYLE
  5
3
330
0
100
AcDbSymbolTable
 70
     1
  0
STYLE
  5
11
330
3
100
AcDbSymbolTableRecord
100
AcDbTextStyleTableRecord
  2
Standard
 70
     0
 40
0.0
 41
1.0
 50
0.0
 71
     0
 42
3.5
  3
txt
  4

  0
ENDTAB
  0
TABLE
  2
VIEW
  5
6
330
0
100
AcDbSymbolTable
 70
     0
  0
ENDTAB
  0
TABLE
  2
UCS
  5
7
330
0
100
AcDbSymbolTable
 70
     0
  0
ENDTAB
  0
TABLE
  2
APPID
  5
9
330
0
100
AcDbSymbolTable
 70
     1
  0
APPID
  5
12
330
9
100
AcDbSymbolTableRecord
100
AcDbRegAppTableRecord
  2
ACAD
 70
     0
  0
ENDTAB
  0
TABLE
  2
DIMSTYLE
  5
A
330
0
100
AcDbSymbolTable
 70
     1
100
AcDbDimStyleTable
  0
DIMSTYLE
105
27
330
A
100
AcDbSymbolTableRecord
100
AcDbDimStyleTableRecord
  2
ISO-25
 70
     0
 41
2.5
 42
0.625
 43
3.75
 44
1.25
 73
     0
 74
     0
 77
     1
 78
     8
140
2.5
141
2.5
143
0.0393700787
147
0.625
171
     3
172
     1
178
     0
271
     2
272
     2
274
     3
278
    44
283
     0
284
     8
340
11
  0
ENDTAB
  0
TABLE
  2
BLOCK_RECORD
  5
1
330
0
100
AcDbSymbolTable
 70
     6
  0
BLOCK_RECORD
  5
1F
330
1
100
AcDbSymbolTableRecord
100
AcDbBlockTableRecord
  2
*Model_Space
340
22
  0
BLOCK_RECORD
  5
1B
330
1
100
AcDbSymbolTableRecord
100
AcDbBlockTableRecord
  2
*Paper_Space
340
1E
  0
BLOCK_RECORD
  5
23
330
1
100
AcDbSymbolTableRecord
100
AcDbBlockTableRecord
  2
*Paper_Space0
340
26
  0
BLOCK_RECORD
  5
8F
330
1
100
AcDbSymbolTableRecord
100
AcDbBlockTableRecord
  2
SW_CENTERMARKSYMBOL_0
340
0
102
{BLKREFS
331
9A
102
}
  0
BLOCK_RECORD
  5
9B
330
1
100
AcDbSymbolTableRecord
100
AcDbBlockTableRecord
  2
SW_CENTERMARKSYMBOL_1
340
0
102
{BLKREFS
331
A6
102
}
  0
BLOCK_RECORD
  5
A7
330
1
100
AcDbSymbolTableRecord
100
AcDbBlockTableRecord
  2
SW_CENTERMARKSYMBOL_2
340
0
102
{BLKREFS
331
B2
102
}
  0
BLOCK_RECORD
  5
B3
330
1
100
AcDbSymbolTableRecord
100
AcDbBlockTableRecord
  2
SW_CENTERMARKSYMBOL_3
340
0
102
{BLKREFS
331
BE
102
}
  0
BLOCK_RECORD
  5
BF
330
1
100
AcDbSymbolTableRecord
100
AcDbBlockTableRecord
  2
SW_CENTERMARKSYMBOL_4
340
0
102
{BLKREFS
331
CA
102
}
  0
ENDTAB
  0
ENDSEC
  0
SECTION
  2
BLOCKS
  0
BLOCK
  5
20
330
1F
100
AcDbEntity
  8
0
100
AcDbBlockBegin
  2
*Model_Space
 70
     0
 10
0.0
 20
0.0
 30
0.0
  3
*Model_Space
  1

  0
ENDBLK
  5
21
330
1F
100
AcDbEntity
  8
0
100
AcDbBlockEnd
  0
BLOCK
  5
1C
330
1B
100
AcDbEntity
 67
     1
  8
0
100
AcDbBlockBegin
  2
*Paper_Space
 70
     0
 10
0.0
 20
0.0
 30
0.0
  3
*Paper_Space
  1

  0
ENDBLK
  5
1D
330
1B
100
AcDbEntity
 67
     1
  8
0
100
AcDbBlockEnd
  0
BLOCK
  5
24
330
23
100
AcDbEntity
  8
0
100
AcDbBlockBegin
  2
*Paper_Space0
 70
     0
 10
0.0
 20
0.0
 30
0.0
  3
*Paper_Space0
  1

  0
ENDBLK
  5
25
330
23
100
AcDbEntity
  8
0
100
AcDbBlockEnd
  0
BLOCK
  5
90
330
8F
100
AcDbEntity
  8
0
100
AcDbBlockBegin
  2
SW_CENTERMARKSYMBOL_0
 70
     0
 10
0.0
 20
0.0
 30
0.0
  3
SW_CENTERMARKSYMBOL_0
  1

  0
LINE
  5
92
330
8F
100
AcDbEntity
  8
FORMAT
 62
     0
100
AcDbLine
 10
0.0
 20
0.0
 30
0.0
 11
0.0
 21
2.5
 31
0.0
  0
LINE
  5
93
330
8F
100
AcDbEntity
  8
FORMAT
 62
     0
100
AcDbLine
 10
0.0
 20
0.0
 30
0.0
 11
-2.5
 21
0.0
 31
0.0
  0
LINE
  5
94
330
8F
100
AcDbEntity
  8
FORMAT
 62
     0
100
AcDbLine
 10
0.0
 20
0.0
 30
0.0
 11
0.0
 21
-2.5
 31
0.0
  0
LINE
  5
95
330
8F
100
AcDbEntity
  8
FORMAT
 62
     0
100
AcDbLine
 10
0.0
 20
0.0
 30
0.0
 11
2.5
 21
0.0
 31
0.0
  0
LINE
  5
96
330
8F
100
AcDbEntity
  8
FORMAT
 62
     0
100
AcDbLine
 10
0.0
 20
5.0
 30
0.0
 11
0.0
 21
72.5
 31
0.0
  0
LINE
  5
97
330
8F
100
AcDbEntity
  8
FORMAT
 62
     0
100
AcDbLine
 10
-5.0
 20
0.0
 30
0.0
 11
-72.5
 21
0.0
 31
0.0
  0
LINE
  5
98
330
8F
100
AcDbEntity
  8
FORMAT
 62
     0
100
AcDbLine
 10
0.0
 20
-5.0
 30
0.0
 11
0.0
 21
-72.5
 31
0.0
  0
LINE
  5
99
330
8F
100
AcDbEntity
  8
FORMAT
 62
     0
100
AcDbLine
 10
5.0
 20
0.0
 30
0.0
 11
72.5
 21
0.0
 31
0.0
  0
ENDBLK
  5
91
330
8F
100
AcDbEntity
  8
0
100
AcDbBlockEnd
  0
BLOCK
  5
9C
330
9B
100
AcDbEntity
  8
0
100
AcDbBlockBegin
  2
SW_CENTERMARKSYMBOL_1
 70
     0
 10
0.0
 20
0.0
 30
0.0
  3
SW_CENTERMARKSYMBOL_1
  1

  0
LINE
  5
9E
330
9B
100
AcDbEntity
  8
FORMAT
 62
     0
100
AcDbLine
 10
0.0
 20
0.0
 30
0.0
 11
0.0
 21
2.5
 31
0.0
  0
LINE
  5
9F
330
9B
100
AcDbEntity
  8
FORMAT
 62
     0
100
AcDbLine
 10
0.0
 20
0.0
 30
0.0
 11
-2.5
 21
0.0
 31
0.0
  0
LINE
  5
A0
330
9B
100
AcDbEntity
  8
FORMAT
 62
     0
100
AcDbLine
 10
0.0
 20
0.0
 30
0.0
 11
0.0
 21
-2.5
 31
0.0
  0
LINE
  5
A1
330
9B
100
AcDbEntity
  8
FORMAT
 62
     0
100
AcDbLine
 10
0.0
 20
0.0
 30
0.0
 11
2.5
 21
0.0
 31
0.0
  0
LINE
  5
A2
330
9B
100
AcDbEntity
  8
FORMAT
 62
     0
100
AcDbLine
 10
0.0
 20
5.0
 30
0.0
 11
0.0
 21
11.5
 31
0.0
  0
LINE
  5
A3
330
9B
100
AcDbEntity
  8
FORMAT
 62
     0
100
AcDbLine
 10
-5.0
 20
0.0
 30
0.0
 11
-11.5
 21
0.0
 31
0.0
  0
LINE
  5
A4
330
9B
100
AcDbEntity
  8
FORMAT
 62
     0
100
AcDbLine
 10
0.0
 20
-5.0
 30
0.0
 11
0.0
 21
-11.5
 31
0.0
  0
LINE
  5
A5
330
9B
100
AcDbEntity
  8
FORMAT
 62
     0
100
AcDbLine
 10
5.0
 20
0.0
 30
0.0
 11
11.5
 21
0.0
 31
0.0
  0
ENDBLK
  5
9D
330
9B
100
AcDbEntity
  8
0
100
AcDbBlockEnd
  0
BLOCK
  5
A8
330
A7
100
AcDbEntity
  8
0
100
AcDbBlockBegin
  2
SW_CENTERMARKSYMBOL_2
 70
     0
 10
0.0
 20
0.0
 30
0.0
  3
SW_CENTERMARKSYMBOL_2
  1

  0
LINE
  5
AA
330
A7
100
AcDbEntity
  8
FORMAT
 62
     0
100
AcDbLine
 10
0.0
 20
0.0
 30
0.0
 11
0.0
 21
2.5
 31
0.0
  0
LINE
  5
AB
330
A7
100
AcDbEntity
  8
FORMAT
 62
     0
100
AcDbLine
 10
0.0
 20
0.0
 30
0.0
 11
-2.5
 21
0.0
 31
0.0
  0
LINE
  5
AC
330
A7
100
AcDbEntity
  8
FORMAT
 62
     0
100
AcDbLine
 10
0.0
 20
0.0
 30
0.0
 11
0.0
 21
-2.5
 31
0.0
  0
LINE
  5
AD
330
A7
100
AcDbEntity
  8
FORMAT
 62
     0
100
AcDbLine
 10
0.0
 20
0.0
 30
0.0
 11
2.5
 21
0.0
 31
0.0
  0
LINE
  5
AE
330
A7
100
AcDbEntity
  8
FORMAT
 62
     0
100
AcDbLine
 10
0.0
 20
5.0
 30
0.0
 11
0.0
 21
11.5
 31
0.0
  0
LINE
  5
AF
330
A7
100
AcDbEntity
  8
FORMAT
 62
     0
100
AcDbLine
 10
-5.0
 20
0.0
 30
0.0
 11
-11.5
 21
0.0
 31
0.0
  0
LINE
  5
B0
330
A7
100
AcDbEntity
  8
FORMAT
 62
     0
100
AcDbLine
 10
0.0
 20
-5.0
 30
0.0
 11
0.0
 21
-11.5
 31
0.0
  0
LINE
  5
B1
330
A7
100
AcDbEntity
  8
FORMAT
 62
     0
100
AcDbLine
 10
5.0
 20
0.0
 30
0.0
 11
11.5
 21
0.0
 31
0.0
  0
ENDBLK
  5
A9
330
A7
100
AcDbEntity
  8
0
100
AcDbBlockEnd
  0
BLOCK
  5
B4
330
B3
100
AcDbEntity
  8
0
100
AcDbBlockBegin
  2
SW_CENTERMARKSYMBOL_3
 70
     0
 10
0.0
 20
0.0
 30
0.0
  3
SW_CENTERMARKSYMBOL_3
  1

  0
LINE
  5
B6
330
B3
100
AcDbEntity
  8
FORMAT
 62
     0
100
AcDbLine
 10
0.0
 20
0.0
 30
0.0
 11
0.0
 21
2.5
 31
0.0
  0
LINE
  5
B7
330
B3
100
AcDbEntity
  8
FORMAT
 62
     0
100
AcDbLine
 10
0.0
 20
0.0
 30
0.0
 11
-2.5
 21
0.0
 31
0.0
  0
LINE
  5
B8
330
B3
100
AcDbEntity
  8
FORMAT
 62
     0
100
AcDbLine
 10
0.0
 20
0.0
 30
0.0
 11
0.0
 21
-2.5
 31
0.0
  0
LINE
  5
B9
330
B3
100
AcDbEntity
  8
FORMAT
 62
     0
100
AcDbLine
 10
0.0
 20
0.0
 30
0.0
 11
2.5
 21
0.0
 31
0.0
  0
LINE
  5
BA
330
B3
100
AcDbEntity
  8
FORMAT
 62
     0
100
AcDbLine
 10
0.0
 20
5.0
 30
0.0
 11
0.0
 21
11.5
 31
0.0
  0
LINE
  5
BB
330
B3
100
AcDbEntity
  8
FORMAT
 62
     0
100
AcDbLine
 10
-5.0
 20
0.0
 30
0.0
 11
-11.5
 21
0.0
 31
0.0
  0
LINE
  5
BC
330
B3
100
AcDbEntity
  8
FORMAT
 62
     0
100
AcDbLine
 10
0.0
 20
-5.0
 30
0.0
 11
0.0
 21
-11.5
 31
0.0
  0
LINE
  5
BD
330
B3
100
AcDbEntity
  8
FORMAT
 62
     0
100
AcDbLine
 10
5.0
 20
0.0
 30
0.0
 11
11.5
 21
0.0
 31
0.0
  0
ENDBLK
  5
B5
330
B3
100
AcDbEntity
  8
0
100
AcDbBlockEnd
  0
BLOCK
  5
C0
330
BF
100
AcDbEntity
  8
0
100
AcDbBlockBegin
  2
SW_CENTERMARKSYMBOL_4
 70
     0
 10
0.0
 20
0.0
 30
0.0
  3
SW_CENTERMARKSYMBOL_4
  1

  0
LINE
  5
C2
330
BF
100
AcDbEntity
  8
FORMAT
 62
     0
100
AcDbLine
 10
0.0
 20
0.0
 30
0.0
 11
0.0
 21
2.5
 31
0.0
  0
LINE
  5
C3
330
BF
100
AcDbEntity
  8
FORMAT
 62
     0
100
AcDbLine
 10
0.0
 20
0.0
 30
0.0
 11
-2.5
 21
0.0
 31
0.0
  0
LINE
  5
C4
330
BF
100
AcDbEntity
  8
FORMAT
 62
     0
100
AcDbLine
 10
0.0
 20
0.0
 30
0.0
 11
0.0
 21
-2.5
 31
0.0
  0
LINE
  5
C5
330
BF
100
AcDbEntity
  8
FORMAT
 62
     0
100
AcDbLine
 10
0.0
 20
0.0
 30
0.0
 11
2.5
 21
0.0
 31
0.0
  0
LINE
  5
C6
330
BF
100
AcDbEntity
  8
FORMAT
 62
     0
100
AcDbLine
 10
0.0
 20
5.0
 30
0.0
 11
0.0
 21
11.5
 31
0.0
  0
LINE
  5
C7
330
BF
100
AcDbEntity
  8
FORMAT
 62
     0
100
AcDbLine
 10
-5.0
 20
0.0
 30
0.0
 11
-11.5
 21
0.0
 31
0.0
  0
LINE
  5
C8
330
BF
100
AcDbEntity
  8
FORMAT
 62
     0
100
AcDbLine
 10
0.0
 20
-5.0
 30
0.0
 11
0.0
 21
-11.5
 31
0.0
  0
LINE
  5
C9
330
BF
100
AcDbEntity
  8
FORMAT
 62
     0
100
AcDbLine
 10
5.0
 20
0.0
 30
0.0
 11
11.5
 21
0.0
 31
0.0
  0
ENDBLK
  5
C1
330
BF
100
AcDbEntity
  8
0
100
AcDbBlockEnd
  0
ENDSEC
  0
SECTION
  2
ENTITIES
  0
CIRCLE
  5
83
330
1F
100
AcDbEntity
  8
0
  6
Continuous
 62
     7
370
    25
100
AcDbCircle
 10
137.8667640332
 20
53.5638469371
 30
0.0
 40
9.999999999999972
  0
CIRCLE
  5
84
330
1F
100
AcDbEntity
  8
0
  6
Continuous
 62
     7
370
    25
100
AcDbCircle
 10
137.8667640332
 20
153.5638469371
 30
0.0
 40
10.0
  0
CIRCLE
  5
85
330
1F
100
AcDbEntity
  8
0
  6
Continuous
 62
     7
370
    25
100
AcDbCircle
 10
137.8667640332
 20
103.5638469371
 30
0.0
 40
69.00000000000003
  0
CIRCLE
  5
86
330
1F
100
AcDbEntity
  8
0
  6
Continuous
 62
     7
370
    25
100
AcDbCircle
 10
137.8667640332
 20
103.5638469371
 30
0.0
 40
26.5
  0
CIRCLE
  5
87
330
1F
100
AcDbEntity
  8
0
  6
Continuous
 62
     7
370
    25
100
AcDbCircle
 10
187.8667640332
 20
103.5638469371
 30
0.0
 40
10.0
  0
CIRCLE
  5
88
330
1F
100
AcDbEntity
  8
0
  6
Continuous
 62
     7
370
    25
100
AcDbCircle
 10
87.8667640332
 20
103.5638469371
 30
0.0
 40
10.0
  0
CIRCLE
  5
89
330
1F
100
AcDbEntity
  8
0
  6
Continuous
 62
     7
370
    25
100
AcDbCircle
 10
137.8667640332
 20
103.5638469371
 30
0.0
 40
25.5
  0
CIRCLE
  5
8A
330
1F
100
AcDbEntity
  8
0
  6
Continuous
 62
     7
370
    25
100
AcDbCircle
 10
137.8667640332
 20
103.5638469371
 30
0.0
 40
70.00000000000003
  0
CIRCLE
  5
8B
330
1F
100
AcDbEntity
  8
0
  6
Continuous
 62
     7
370
    25
100
AcDbCircle
 10
137.8667640332
 20
153.5638469371
 30
0.0
 40
9.0
  0
CIRCLE
  5
8C
330
1F
100
AcDbEntity
  8
0
  6
Continuous
 62
     7
370
    25
100
AcDbCircle
 10
87.8667640332
 20
103.5638469371
 30
0.0
 40
9.0
  0
CIRCLE
  5
8D
330
1F
100
AcDbEntity
  8
0
  6
Continuous
 62
     7
370
    25
100
AcDbCircle
 10
187.8667640332
 20
103.5638469371
 30
0.0
 40
9.0
  0
CIRCLE
  5
8E
330
1F
100
AcDbEntity
  8
0
  6
Continuous
 62
     7
370
    25
100
AcDbCircle
 10
137.8667640332
 20
53.5638469371
 30
0.0
 40
8.999999999999972
  0
INSERT
  5
9A
330
1F
100
AcDbEntity
  8
FORMAT
 62
     7
100
AcDbBlockReference
  2
SW_CENTERMARKSYMBOL_0
 10
137.8667640332
 20
103.5638469371
 30
0.0
  0
INSERT
  5
A6
330
1F
100
AcDbEntity
  8
FORMAT
 62
     7
100
AcDbBlockReference
  2
SW_CENTERMARKSYMBOL_1
 10
137.8667640332
 20
153.5638469371
 30
0.0
  0
INSERT
  5
B2
330
1F
100
AcDbEntity
  8
FORMAT
 62
     7
100
AcDbBlockReference
  2
SW_CENTERMARKSYMBOL_2
 10
187.8667640332
 20
103.5638469371
 30
0.0
  0
INSERT
  5
BE
330
1F
100
AcDbEntity
  8
FORMAT
 62
     7
100
AcDbBlockReference
  2
SW_CENTERMARKSYMBOL_3
 10
137.8667640332
 20
53.5638469371
 30
0.0
  0
INSERT
  5
CA
330
1F
100
AcDbEntity
  8
FORMAT
 62
     7
100
AcDbBlockReference
  2
SW_CENTERMARKSYMBOL_4
 10
87.8667640332
 20
103.5638469371
 30
0.0
  0
LINE
  5
CB
330
1F
100
AcDbEntity
  8
0
  6
Continuous
 62
     7
370
    25
100
AcDbLine
 10
-5.3457316797
 20
173.5638469371
 30
0.0
 11
-19.3457316797
 21
173.5638469371
 31
0.0
  0
LINE
  5
CC
330
1F
100
AcDbEntity
  8
0
  6
Continuous
 62
     7
370
    25
100
AcDbLine
 10
-19.3457316797
 20
33.5638469371
 30
0.0
 11
-5.3457316797
 21
33.5638469371
 31
0.0
  0
ARC
  5
CD
330
1F
100
AcDbEntity
  8
0
  6
Continuous
 62
     7
370
    25
100
AcDbCircle
 10
-5.3457316797
 20
34.5638469371
 30
0.0
 40
1.0
100
AcDbArc
 50
270.0
 51
0.0
  0
ARC
  5
CE
330
1F
100
AcDbEntity
  8
0
  6
Continuous
 62
     7
370
    25
100
AcDbCircle
 10
-5.3457316797
 20
172.5638469371
 30
0.0
 40
1.0
100
AcDbArc
 50
0.0
 51
90.0
  0
ARC
  5
CF
330
1F
100
AcDbEntity
  8
0
  6
Continuous
 62
     7
370
    25
100
AcDbCircle
 10
-19.3457316797
 20
34.5638469371
 30
0.0
 40
1.0
100
AcDbArc
 50
180.0
 51
270.0
  0
ARC
  5
D0
330
1F
100
AcDbEntity
  8
0
  6
Continuous
 62
     7
370
    25
100
AcDbCircle
 10
-19.3457316797
 20
172.5638469371
 30
0.0
 40
1.0
100
AcDbArc
 50
90.0
 51
180.0
  0
LINE
  5
D1
330
1F
100
AcDbEntity
  8
0
  6
Continuous
 62
     7
370
    25
100
AcDbLine
 10
-4.3457316797
 20
103.5638469371
 30
0.0
 11
-4.3457316797
 21
34.5638469371
 31
0.0
  0
LINE
  5
D2
330
1F
100
AcDbEntity
  8
0
  6
Continuous
 62
     7
370
    25
100
AcDbLine
 10
-4.3457316797
 20
172.5638469371
 30
0.0
 11
-4.3457316797
 21
103.5638469371
 31
0.0
  0
LINE
  5
D3
330
1F
100
AcDbEntity
  8
0
  6
Continuous
 62
     7
370
    25
100
AcDbLine
 10
-20.3457316797
 20
103.5638469371
 30
0.0
 11
-20.3457316797
 21
172.5638469371
 31
0.0
  0
LINE
  5
D4
330
1F
100
AcDbEntity
  8
0
  6
Continuous
 62
     7
370
    25
100
AcDbLine
 10
-20.3457316797
 20
34.5638469371
 30
0.0
 11
-20.3457316797
 21
103.5638469371
 31
0.0
  0
LINE
  5
D5
330
1F
100
AcDbEntity
  8
0
  6
Continuous
 62
     1
370
    25
100
AcDbLine
 10
-19.3457316797
 20
103.5638469371
 30
0.0
 11
-19.3457316797
 21
33.5638469371
 31
0.0
  0
LINE
  5
D6
330
1F
100
AcDbEntity
  8
0
  6
Continuous
 62
     1
370
    25
100
AcDbLine
 10
-19.3457316797
 20
173.5638469371
 30
0.0
 11
-19.3457316797
 21
103.5638469371
 31
0.0
  0
LINE
  5
D7
330
1F
100
AcDbEntity
  8
0
  6
Continuous
 62
     1
370
    25
100
AcDbLine
 10
-5.3457316797
 20
103.5638469371
 30
0.0
 11
-5.3457316797
 21
173.5638469371
 31
0.0
  0
LINE
  5
D8
330
1F
100
AcDbEntity
  8
0
  6
Continuous
 62
     1
370
    25
100
AcDbLine
 10
-5.3457316797
 20
33.5638469371
 30
0.0
 11
-5.3457316797
 21
103.5638469371
 31
0.0
  0
LINE
  5
D9
330
1F
100
AcDbEntity
  8
0
  6
Continuous
 62
     7
370
    25
100
AcDbLine
 10
293.2909458017
 20
33.5638469371
 30
0.0
 11
307.2909458017
 21
33.5638469371
 31
0.0
  0
LINE
  5
DA
330
1F
100
AcDbEntity
  8
0
  6
Continuous
 62
     7
370
    25
100
AcDbLine
 10
307.2909458017
 20
173.5638469371
 30
0.0
 11
293.2909458017
 21
173.5638469371
 31
0.0
  0
ARC
  5
DB
330
1F
100
AcDbEntity
  8
0
  6
Continuous
 62
     7
370
    25
100
AcDbCircle
 10
293.2909458017
 20
172.5638469371
 30
0.0
 40
1.0
100
AcDbArc
 50
90.0
 51
180.0
  0
ARC
  5
DC
330
1F
100
AcDbEntity
  8
0
  6
Continuous
 62
     7
370
    25
100
AcDbCircle
 10
293.2909458017
 20
34.5638469371
 30
0.0
 40
1.0
100
AcDbArc
 50
180.0
 51
270.0
  0
ARC
  5
DD
330
1F
100
AcDbEntity
  8
0
  6
Continuous
 62
     7
370
    25
100
AcDbCircle
 10
307.2909458017
 20
172.5638469371
 30
0.0
 40
1.0
100
AcDbArc
 50
0.0
 51
90.0
  0
ARC
  5
DE
330
1F
100
AcDbEntity
  8
0
  6
Continuous
 62
     7
370
    25
100
AcDbCircle
 10
307.2909458017
 20
34.5638469371
 30
0.0
 40
1.0
100
AcDbArc
 50
270.0
 51
0.0
  0
LINE
  5
DF
330
1F
100
AcDbEntity
  8
0
  6
Continuous
 62
     7
370
    25
100
AcDbLine
 10
292.2909458017
 20
34.5638469371
 30
0.0
 11
292.2909458017
 21
172.5638469371
 31
0.0
  0
LINE
  5
E0
330
1F
100
AcDbEntity
  8
0
  6
Continuous
 62
     7
370
    25
100
AcDbLine
 10
308.2909458017
 20
172.5638469371
 30
0.0
 11
308.2909458017
 21
34.5638469371
 31
0.0
  0
LINE
  5
E1
330
1F
100
AcDbEntity
  8
0
  6
Continuous
 62
     1
370
    25
100
AcDbLine
 10
307.2909458017
 20
33.5638469371
 30
0.0
 11
307.2909458017
 21
173.5638469371
 31
0.0
  0
LINE
  5
E2
330
1F
100
AcDbEntity
  8
0
  6
Continuous
 62
     1
370
    25
100
AcDbLine
 10
293.2909458017
 20
173.5638469371
 30
0.0
 11
293.2909458017
 21
33.5638469371
 31
0.0
  0
LINE
  5
E3
330
1F
100
AcDbEntity
  8
0
  6
Continuous
 62
     7
370
    25
100
AcDbLine
 10
207.8667640332
 20
222.3744194294
 30
0.0
 11
207.8667640332
 21
236.3744194294
 31
0.0
  0
LINE
  5
E4
330
1F
100
AcDbEntity
  8
0
  6
Continuous
 62
     7
370
    25
100
AcDbLine
 10
67.8667640332
 20
236.3744194294
 30
0.0
 11
67.8667640332
 21
222.3744194294
 31
0.0
  0
ARC
  5
E5
330
1F
100
AcDbEntity
  8
0
  6
Continuous
 62
     7
370
    25
100
AcDbCircle
 10
68.8667640332
 20
222.3744194294
 30
0.0
 40
1.0
100
AcDbArc
 50
180.0
 51
270.0
  0
ARC
  5
E6
330
1F
100
AcDbEntity
  8
0
  6
Continuous
 62
     7
370
    25
100
AcDbCircle
 10
206.8667640332
 20
222.3744194294
 30
0.0
 40
1.0
100
AcDbArc
 50
270.0
 51
0.0
  0
ARC
  5
E7
330
1F
100
AcDbEntity
  8
0
  6
Continuous
 62
     7
370
    25
100
AcDbCircle
 10
68.8667640332
 20
236.3744194294
 30
0.0
 40
1.0
100
AcDbArc
 50
90.0
 51
180.0
  0
ARC
  5
E8
330
1F
100
AcDbEntity
  8
0
  6
Continuous
 62
     7
370
    25
100
AcDbCircle
 10
206.8667640332
 20
236.3744194294
 30
0.0
 40
1.0
100
AcDbArc
 50
0.0
 51
90.0
  0
LINE
  5
E9
330
1F
100
AcDbEntity
  8
0
  6
Continuous
 62
     7
370
    25
100
AcDbLine
 10
206.8667640332
 20
221.3744194294
 30
0.0
 11
68.8667640333
 21
221.3744194294
 31
0.0
  0
LINE
  5
EA
330
1F
100
AcDbEntity
  8
0
  6
Continuous
 62
     7
370
    25
100
AcDbLine
 10
68.8667640333
 20
237.3744194294
 30
0.0
 11
206.8667640332
 21
237.3744194294
 31
0.0
  0
LINE
  5
EB
330
1F
100
AcDbEntity
  8
0
  6
Continuous
 62
     1
370
    25
100
AcDbLine
 10
207.8667640332
 20
236.3744194294
 30
0.0
 11
67.8667640332
 21
236.3744194294
 31
0.0
  0
LINE
  5
EC
330
1F
100
AcDbEntity
  8
0
  6
Continuous
 62
     1
370
    25
100
AcDbLine
 10
67.8667640332
 20
222.3744194294
 30
0.0
 11
207.8667640332
 21
222.3744194294
 31
0.0
  0
LINE
  5
ED
330
1F
100
AcDbEntity
  8
0
  6
Continuous
 62
     7
370
    25
100
AcDbLine
 10
67.8667640332
 20
-75.1635875995
 30
0.0
 11
67.8667640332
 21
-89.1635875995
 31
0.0
  0
LINE
  5
EE
330
1F
100
AcDbEntity
  8
0
  6
Continuous
 62
     7
370
    25
100
AcDbLine
 10
207.8667640332
 20
-89.1635875995
 30
0.0
 11
207.8667640332
 21
-75.1635875995
 31
0.0
  0
ARC
  5
EF
330
1F
100
AcDbEntity
  8
0
  6
Continuous
 62
     7
370
    25
100
AcDbCircle
 10
206.8667640332
 20
-75.1635875995
 30
0.0
 40
1.0
100
AcDbArc
 50
0.0
 51
90.0
  0
ARC
  5
F0
330
1F
100
AcDbEntity
  8
0
  6
Continuous
 62
     7
370
    25
100
AcDbCircle
 10
68.8667640332
 20
-75.1635875995
 30
0.0
 40
1.0
100
AcDbArc
 50
90.0
 51
180.0
  0
ARC
  5
F1
330
1F
100
AcDbEntity
  8
0
  6
Continuous
 62
     7
370
    25
100
AcDbCircle
 10
206.8667640332
 20
-89.1635875995
 30
0.0
 40
1.0
100
AcDbArc
 50
270.0
 51
0.0
  0
ARC
  5
F2
330
1F
100
AcDbEntity
  8
0
  6
Continuous
 62
     7
370
    25
100
AcDbCircle
 10
68.8667640332
 20
-89.1635875995
 30
0.0
 40
1.0
100
AcDbArc
 50
180.0
 51
270.0
  0
LINE
  5
F3
330
1F
100
AcDbEntity
  8
0
  6
Continuous
 62
     7
370
    25
100
AcDbLine
 10
68.8667640333
 20
-74.1635875995
 30
0.0
 11
206.8667640332
 21
-74.1635875995
 31
0.0
  0
LINE
  5
F4
330
1F
100
AcDbEntity
  8
0
  6
Continuous
 62
     7
370
    25
100
AcDbLine
 10
206.8667640332
 20
-90.1635875995
 30
0.0
 11
68.8667640333
 21
-90.1635875995
 31
0.0
  0
LINE
  5
F5
330
1F
100
AcDbEntity
  8
0
  6
Continuous
 62
     1
370
    25
100
AcDbLine
 10
67.8667640332
 20
-89.1635875995
 30
0.0
 11
207.8667640332
 21
-89.1635875995
 31
0.0
  0
LINE
  5
F6
330
1F
100
AcDbEntity
  8
0
  6
Continuous
 62
     1
370
    25
100
AcDbLine
 10
207.8667640332
 20
-75.1635875995
 30
0.0
 11
67.8667640332
 21
-75.1635875995
 31
0.0
  0
SPLINE
  5
F7
330
1F
100
AcDbEntity
  8
0
  6
Continuous
 62
     7
370
    25
100
AcDbSpline
210
0.0
220
0.0
230
1.0
 70
     8
 71
     3
 72
    78
 73
    74
 74
     0
 42
0.00000001
 43
0.00000001
 40
0.0
 40
0.0
 40
0.0
 40
0.0
 40
0.0066758604764955
 40
0.0206983399827741
 40
0.0347354090062762
 40
0.0487912690098121
 40
0.0628686550851553
 40
0.0769687989202252
 40
0.0910915585072561
 40
0.1052356672491194
 40
0.1193990447234332
 40
0.1335791148407423
 40
0.1477730903051516
 40
0.1619781994057558
 40
0.176191847167629
 40
0.1904117147238792
 40
0.2046358075708724
 40
0.2188624658224687
 40
0.2330903490606738
 40
0.2473182087373979
 40
0.2615452272067257
 40
0.2757708829336986
 40
0.2899948193726289
 40
0.3042168130664679
 40
0.3184367462470947
 40
0.3326545839063029
 40
0.3468703549990603
 40
0.3610841372935823
 40
0.3752960453385301
 40
0.3895062210333407
 40
0.4037148263341944
 40
0.4179220376873393
 40
0.4321280418427852
 40
0.4463330327586218
 40
0.4605372093568273
 40
0.4747407739340881
 40
0.4889439310660562
 40
0.5031468868707986
 40
0.5173498485178236
 40
0.5315529763415286
 40
0.5457564569871496
 40
0.5599604990167839
 40
0.574165310811125
 40
0.5883710999877131
 40
0.6025780725309007
 40
0.6167864315073612
 40
0.6309963752201686
 40
0.6452080946231517
 40
0.6594217697780338
 40
0.6736375650893208
 40
0.6878556229962548
 40
0.702076055738873
 40
0.7162989347499858
 40
0.7305242771639221
 40
0.744752028889253
 40
0.7589820436879365
 40
0.7732140577712837
 40
0.7874476596144778
 40
0.8016822550767364
 40
0.8159168012043787
 40
0.8301500273169453
 40
0.8443804471347031
 40
0.8586062321014652
 40
0.8728252008879771
 40
0.8870348390416726
 40
0.9012323625171346
 40
0.9154148387176495
 40
0.9295793748733034
 40
0.9437233746700927
 40
0.9578448496261686
 40
0.9719427534405416
 40
0.9860172897167961
 40
0.9999999999999999
 40
0.9999999999999999
 40
0.9999999999999999
 40
0.9999999999999999
 10
328.5336205431856
 20
6.88801057478948
 30
0.0
 10
328.2788229485139
 20
6.988681571115249
 30
0.0
 10
327.4888293199961
 20
7.300809500644615
 30
0.0
 10
326.1059939583917
 20
7.706872890683544
 30
0.0
 10
324.3912751899849
 20
8.110722704122484
 30
0.0
 10
322.6255138271738
 20
8.397487444356353
 30
0.0
 10
320.8153582510518
 20
8.574130648333982
 30
0.0
 10
318.9628438022024
 20
8.638125010053969
 30
0.0
 10
317.0714490050033
 20
8.58972140546181
 30
0.0
 10
315.1444586187123
 20
8.428692538902396
 30
0.0
 10
313.1853776042404
 20
8.15523635982593
 30
0.0
 10
311.1977853404139
 20
7.769750008552248
 30
0.0
 10
309.1853374706354
 20
7.272894921854705
 30
0.0
 10
307.1517304056902
 20
6.66557371796346
 30
0.0
 10
305.1006812979581
 20
5.948923901400422
 30
0.0
 10
303.035910584066
 20
5.124303398717597
 30
0.0
 10
300.9611303845732
 20
4.193277273496665
 30
0.0
 10
298.8800368209507
 20
3.157604926868493
 30
0.0
 10
296.7963149855112
 20
2.019234238490056
 30
0.0
 10
294.713627378963
 20
0.7802895373477738
 30
0.0
 10
292.6356077649978
 20
-0.5569386754040867
 30
0.0
 10
290.5658504933704
 20
-1.99000801259594
 30
0.0
 10
288.5079181114247
 20
-3.516325371566868
 30
0.0
 10
286.4653437506512
 20
-5.133148657332185
 30
0.0
 10
284.4416282977622
 20
-6.837590979586625
 30
0.0
 10
282.4402370079295
 20
-8.626624770459633
 30
0.0
 10
280.4645956156769
 20
-10.49708597880736
 30
0.0
 10
278.5180860210132
 20
-12.44567844970241
 30
0.0
 10
276.6040416362922
 20
-14.46897855966665
 30
0.0
 10
274.7257424782167
 20
-16.56344014899554
 30
0.0
 10
272.8864100834739
 20
-18.72539977094315
 30
0.0
 10
271.0892023183233
 20
-20.95108226209098
 30
0.0
 10
269.3372081437122
 20
-23.23660662748335
 30
0.0
 10
267.6334423890737
 20
-25.57799222685366
 30
0.0
 10
265.9808405803774
 20
-27.97116524349162
 30
0.0
 10
264.3822538614319
 20
-30.41196541420011
 30
0.0
 10
262.8404440418325
 20
-32.89615299694947
 30
0.0
 10
261.3580788005802
 20
-35.41941595110077
 30
0.0
 10
259.9377286545499
 20
-37.97737445173234
 30
0.0
 10
258.5818613270494
 20
-40.56558980206057
 30
0.0
 10
257.2928366717791
 20
-43.17957343358953
 30
0.0
 10
256.0729014335009
 20
-45.81479774277979
 30
0.0
 10
254.9241865969926
 20
-48.46670247774951
 30
0.0
 10
253.8487046531612
 20
-51.13070131896119
 30
0.0
 10
252.8483464544094
 20
-53.80218979162055
 30
0.0
 10
251.92487835955
 20
-56.4765531547031
 30
0.0
 10
251.0799396751936
 20
-59.14917422538409
 30
0.0
 10
250.3150403963289
 20
-61.81544109336163
 30
0.0
 10
249.631559243319
 20
-64.47075467420643
 30
0.0
 10
249.0307419849636
 20
-67.11053604492919
 30
0.0
 10
248.5137000269674
 20
-69.73023349867185
 30
0.0
 10
248.0814092312337
 20
-72.32532924937924
 30
0.0
 10
247.7347089129236
 20
-74.89134571248704
 30
0.0
 10
247.4743009381797
 20
-77.42385128564958
 30
0.0
 10
247.3007488149885
 20
-79.91846555684693
 30
0.0
 10
247.2144766324301
 20
-82.3708638792967
 30
0.0
 10
247.2157676604301
 20
-84.77678127909759
 30
0.0
 10
247.3047623750968
 20
-87.13201570681272
 30
0.0
 10
247.4814546914106
 20
-89.43241847537135
 30
0.0
 10
247.7456856219203
 20
-91.67390010925932
 30
0.0
 10
248.0971363897995
 20
-93.85243889106124
 30
0.0
 10
248.5353230562667
 20
-95.96409541319312
 30
0.0
 10
249.0595884218072
 20
-98.0050144104182
 30
0.0
 10
249.6690907683082
 20
-99.97142795571595
 30
0.0
 10
250.3627939946527
 20
-101.8596656281322
 30
0.0
 10
251.1394538158132
 20
-103.6661766103479
 30
0.0
 10
251.9976248388566
 20
-105.3875301966057
 30
0.0
 10
252.9356061004279
 20
-107.0205210912653
 30
0.0
 10
253.9516440582985
 20
-108.5619056027437
 30
0.0
 10
255.0432167854253
 20
-110.0095242659121
 30
0.0
 10
256.2097872821035
 20
-111.3582580605124
 30
0.0
 10
257.4406423818368
 20
-112.6131057508291
 30
0.0
 10
258.3190908876498
 20
-113.3639824735009
 30
0.0
 10
258.756877643719
 20
-113.7381920970031
 30
0.0
  0
LINE
  5
F8
330
1F
100
AcDbEntity
  8
0
  6
Continuous
 62
     7
370
    25
100
AcDbLine
 10
341.9057820181
 20
-0.4612313209
 30
0.0
 11
332.0062870815
 21
5.2536254618
 31
0.0
  0
LINE
  5
F9
330
1F
100
AcDbEntity
  8
0
  6
Continuous
 62
     7
370
    25
100
AcDbLine
 10
262.0119757969
 20
-115.9932152715
 30
0.0
 11
271.9114707335
 21
-121.7080720542
 31
0.0
  0
SPLINE
  5
FA
330
1F
100
AcDbEntity
  8
0
  6
Continuous
 62
     7
370
    25
100
AcDbSpline
210
0.0
220
0.0
230
1.0
 70
     8
 71
     3
 72
    62
 73
    58
 74
     0
 42
0.00000001
 43
0.00000001
 40
0.0
 40
0.0
 40
0.0
 40
0.0
 40
0.0078935979751889
 40
0.0262134175431591
 40
0.0445522222561412
 40
0.0629155226634234
 40
0.0813069155810426
 40
0.0997280328669611
 40
0.1181787086129697
 40
0.1366573031794089
 40
0.1551611086845343
 40
0.1736867649121097
 40
0.1922306317027176
 40
0.2107890862428088
 40
0.2293587346162372
 40
0.2479365425185859
 40
0.2665198989950365
 40
0.2851066303257888
 40
0.303694980540679
 40
0.3222833181522934
 40
0.3408705663107141
 40
0.3594560408141736
 40
0.3780392735431546
 40
0.3966199707154794
 40
0.4151979770187195
 40
0.4337732455867677
 40
0.4523458133818306
 40
0.4709157813489509
 40
0.4894832986511657
 40
0.5080485503132813
 40
0.5266117476625596
 40
0.5451731210320712
 40
0.563732914272341
 40
0.5822913806919641
 40
0.6008487801140432
 40
0.6194053767911183
 40
0.6379614379670663
 40
0.656517232910149
 40
0.6750730322685492
 40
0.6936290465794307
 40
0.7121855186110185
 40
0.7307427208435489
 40
0.7493009255276816
 40
0.7678604039279395
 40
0.7864214251914431
 40
0.8049842546772392
 40
0.8235491515546254
 40
0.8421163654380883
 40
0.8606861317753913
 40
0.879258665643324
 40
0.8978341535330828
 40
0.9164127426259592
 40
0.9349945269747879
 40
0.9535795299268276
 40
0.9721676820663043
 40
0.9907587939477952
 40
1.0
 40
1.0
 40
1.0
 40
1.0
 10
275.4378941874884
 20
-123.3631847989804
 30
0.0
 10
275.6684705060959
 20
-123.454342227171
 30
0.0
 10
276.434178784402
 20
-123.757061941911
 30
0.0
 10
277.7918389906735
 20
-124.1556196813118
 30
0.0
 10
279.5057836370657
 20
-124.5611643531255
 30
0.0
 10
281.2710414024624
 20
-124.8491488229583
 30
0.0
 10
283.0806648656688
 20
-125.0271483273849
 30
0.0
 10
284.9327013909414
 20
-125.0924688505238
 30
0.0
 10
286.8236526414055
 20
-125.0454030763367
 30
0.0
 10
288.750241352553
 20
-124.8857091089209
 30
0.0
 10
290.7089623540931
 20
-124.6135851750855
 30
0.0
 10
292.6962376890613
 20
-124.2294245740605
 30
0.0
 10
294.7084122605995
 20
-123.7338860197689
 30
0.0
 10
296.7417900518416
 20
-123.1278692210974
 30
0.0
 10
298.7926540331702
 20
-122.4125089989606
 30
0.0
 10
300.8572837324181
 20
-121.5891607377664
 30
0.0
 10
302.9319668775561
 20
-120.6593871227068
 30
0.0
 10
305.0130071254129
 20
-119.6249453174258
 30
0.0
 10
307.0967192655804
 20
-118.4877810010612
 30
0.0
 10
309.1794404649679
 20
-117.2500164827288
 30
0.0
 10
311.2575366120063
 20
-115.9139403356982
 30
0.0
 10
313.3274128517204
 20
-114.4819932101636
 30
0.0
 10
315.3855063024129
 20
-112.9567664149459
 30
0.0
 10
317.4282834681446
 20
-111.3410003022444
 30
0.0
 10
319.4522430608397
 20
-109.6375800685527
 30
0.0
 10
321.4539193806991
 20
-107.8495316369743
 30
0.0
 10
323.4298861997726
 20
-105.9800174645619
 30
0.0
 10
325.376761071284
 20
-104.0323321655038
 30
0.0
 10
327.2912099792485
 20
-102.0098978792179
 30
0.0
 10
329.1699522439187
 20
-99.91625934170439
 30
0.0
 10
331.0097656044879
 20
-97.75507864016994
 30
0.0
 10
332.8074914086205
 20
-95.53012964645032
 30
0.0
 10
334.5600398471375
 20
-93.24529213554025
 30
0.0
 10
336.2643951806024
 20
-90.90454560283908
 30
0.0
 10
337.9176209121541
 20
-88.51196279851605
 30
0.0
 10
339.5168648675177
 20
-86.07170300051547
 30
0.0
 10
341.0593641487362
 20
-83.58800504958084
 30
0.0
 10
342.542449932553
 20
-81.06518017140179
 30
0.0
 10
343.9635505307679
 20
-78.50760741464184
 30
0.0
 10
345.3201969653614
 20
-75.91972483735063
 30
0.0
 10
346.6100280788609
 20
-73.30602046225712
 30
0.0
 10
347.8307957564094
 20
-70.67102149232619
 30
0.0
 10
348.9803676271614
 20
-68.01928782280255
 30
0.0
 10
350.0567297760753
 20
-65.35540550990356
 30
0.0
 10
351.0579898874752
 20
-62.6839788609409
 30
0.0
 10
351.9823801202238
 20
-60.00962253523041
 30
0.0
 10
352.8282596079014
 20
-57.33695375428608
 30
0.0
 10
353.5941169531135
 20
-54.67058445284531
 30
0.0
 10
354.2785713304186
 20
-52.01511421996285
 30
0.0
 10
354.8803773900539
 20
-49.3751211065
 30
0.0
 10
355.3984146394848
 20
-46.75516148750128
 30
0.0
 10
355.8317335449876
 20
-44.1597375179848
 30
0.0
 10
356.1793888565215
 20
-41.593387288316
 30
0.0
 10
356.4410664603521
 20
-39.06031902021549
 30
0.0
 10
356.6147476147426
 20
-36.56574979585539
 30
0.0
 10
356.6902258305149
 20
-34.52253829356972
 30
0.0
 10
356.6968085931667
 20
-33.31838773604131
 30
0.0
 10
356.6989942776721
 20
-32.91857182970872
 30
0.0
  0
SPLINE
  5
FB
330
1F
100
AcDbEntity
  8
0
  6
Continuous
 62
     7
370
    25
100
AcDbSpline
210
0.0
220
0.0
230
1.0
 70
     8
 71
     3
 72
    24
 73
    20
 74
     0
 42
0.00000001
 43
0.00000001
 40
0.0
 40
0.0
 40
0.0
 40
0.0
 40
0.0320276757972788
 40
0.0928194821136314
 40
0.1536203853931599
 40
0.2144210125859506
 40
0.2752159343572865
 40
0.3359987855575835
 40
0.3967617379751563
 40
0.4574954567140647
 40
0.5181891859941815
 40
0.5788310230990007
 40
0.6394084386043265
 40
0.6999090845416815
 40
0.7603218938056133
 40
0.8206384122709528
 40
0.8808542269374293
 40
0.9409702774669253
 40
1.0
 40
1.0
 40
1.0
 40
1.0
 10
356.6989942776721
 20
-32.91857182970872
 30
0.0
 10
356.6965472740004
 20
-32.49739340313138
 30
0.0
 10
356.6894556069378
 20
-31.27677522028889
 30
0.0
 10
356.6106678988407
 20
-29.29514547819475
 30
0.0
 10
356.4338790639229
 20
-26.99497215024305
 30
0.0
 10
356.1683595635911
 20
-24.75434985479686
 30
0.0
 10
355.8159438832755
 20
-22.57654529297372
 30
0.0
 10
355.3767136318678
 20
-20.46571539671661
 30
0.0
 10
354.8514364474362
 20
-18.42565589374119
 30
0.0
 10
354.2409272928947
 20
-16.46014929487746
 30
0.0
 10
353.5462323994212
 20
-14.57286058845712
 30
0.0
 10
352.7685965272173
 20
-12.7673401284691
 30
0.0
 10
351.9094679070956
 20
-11.04701692727308
 30
0.0
 10
350.9705508443167
 20
-9.415092829309211
 30
0.0
 10
349.9535976862323
 20
-7.87481432006161
 30
0.0
 10
348.8611459550385
 20
-6.428318376731704
 30
0.0
 10
347.6936842153361
 20
-5.080794243112106
 30
0.0
 10
346.4668634602575
 20
-3.831799801110612
 30
0.0
 10
345.5930323517076
 20
-3.08600413955995
 30
0.0
 10
345.1601004351772
 20
-2.716506256117738
 30
0.0
  0
SPLINE
  5
FC
330
1F
100
AcDbEntity
  8
0
  6
Continuous
 62
     7
370
    25
100
AcDbSpline
210
0.0
220
0.0
230
1.0
 70
     8
 71
     3
 72
    15
 73
    11
 74
     0
 42
0.00000001
 43
0.00000001
 40
0.0
 40
0.0
 40
0.0
 40
0.0
 40
0.0008090051870462
 40
0.1667313976828027
 40
0.3149126841058544
 40
0.4723587289041379
 40
0.623111330767802
 40
0.7700606744544348
 40
0.9154036272088739
 40
0.9999999999999999
 40
0.9999999999999999
 40
0.9999999999999999
 40
0.9999999999999999
 10
336.8827568461573
 20
-27.17635714468635
 30
0.0
 10
336.8835438833901
 20
-27.17671411488229
 30
0.0
 10
337.0457478098292
 20
-27.25028365516922
 30
0.0
 10
337.3006815894219
 20
-27.47550218348066
 30
0.0
 10
337.66175066507
 20
-27.87262177078832
 30
0.0
 10
337.9557837983915
 20
-28.37202615045451
 30
0.0
 10
338.1904729153673
 20
-28.97274728837914
 30
0.0
 10
338.3496408032004
 20
-29.6520097134626
 30
0.0
 10
338.4255780538292
 20
-30.29578168957519
 30
0.0
 10
338.4328594361488
 20
-30.72108085298279
 30
0.0
 10
338.4355383103766
 20
-30.87755155015484
 30
0.0
  0
SPLINE
  5
FD
330
1F
100
AcDbEntity
  8
0
  6
Continuous
 62
     7
370
    25
100
AcDbSpline
210
0.0
220
0.0
230
1.0
 70
     8
 71
     3
 72
    29
 73
    25
 74
     0
 42
0.00000001
 43
0.00000001
 40
0.0
 40
0.0
 40
0.0
 40
0.0
 40
0.0247260444192888
 40
0.0721452418079929
 40
0.1197017681886625
 40
0.1673981938761214
 40
0.2152270022214756
 40
0.2631635709399274
 40
0.31117549474428
 40
0.3592271199510659
 40
0.4072815112393385
 40
0.4552890889974167
 40
0.5032118771730684
 40
0.5510129431623986
 40
0.5986583006153806
 40
0.6461219708209571
 40
0.6933961654322888
 40
0.7405102814727097
 40
0.7875633730523025
 40
0.8346929892732532
 40
0.8822516715632943
 40
0.9308513456212898
 40
0.9813821832209338
 40
1.0
 40
1.0
 40
1.0
 40
1.0
 10
338.4355383103766
 20
-30.87755155015484
 30
0.0
 10
338.4333858290918
 20
-31.02068452027902
 30
0.0
 10
338.427105354943
 20
-31.43831552365332
 30
0.0
 10
338.3561607346153
 20
-32.17194855219643
 30
0.0
 10
338.1951845374538
 20
-33.08179423540414
 30
0.0
 10
337.9532426090428
 20
-34.02036224200102
 30
0.0
 10
337.633885632941
 20
-34.97307910343913
 30
0.0
 10
337.2403754880044
 20
-35.92652120731748
 30
0.0
 10
336.7778055518836
 20
-36.86685275211299
 30
0.0
 10
336.2524091683835
 20
-37.78056189288886
 30
0.0
 10
335.6716559650206
 20
-38.65449158981949
 30
0.0
 10
335.0440741483678
 20
-39.47617273214776
 30
0.0
 10
334.3791457381951
 20
-40.23403630129143
 30
0.0
 10
333.6871242454612
 20
-40.91768604502145
 30
0.0
 10
332.9789552374289
 20
-41.51806148908977
 30
0.0
 10
332.2661145129547
 20
-42.02769720938086
 30
0.0
 10
331.5603538062282
 20
-42.44103646972562
 30
0.0
 10
330.8733498100429
 20
-42.75467489143621
 30
0.0
 10
330.2163444386458
 20
-42.9676902483324
 30
0.0
 10
329.5994458636092
 20
-43.08110723073952
 30
0.0
 10
329.0282854419224
 20
-43.10054457291132
 30
0.0
 10
328.5087922390805
 20
-43.02216916524323
 30
0.0
 10
328.1311179422133
 20
-42.90860630718297
 30
0.0
 10
327.9425390921691
 20
-42.78708139794719
 30
0.0
 10
327.8917654869547
 20
-42.75436162176972
 30
0.0
  0
SPLINE
  5
FE
330
1F
100
AcDbEntity
  8
0
  6
Continuous
 62
     7
370
    25
100
AcDbSpline
210
0.0
220
0.0
230
1.0
 70
     8
 71
     3
 72
    15
 73
    11
 74
     0
 42
0.00000001
 43
0.00000001
 40
0.0
 40
0.0
 40
0.0
 40
0.0
 40
0.0008090051870642
 40
0.1667313976828267
 40
0.3149126841058804
 40
0.4723587289041585
 40
0.6231113307678227
 40
0.7700606744544592
 40
0.9154036272088942
 40
1.0
 40
1.0
 40
1.0
 40
1.0
 10
301.5274177868301
 20
-88.4136005345359
 30
0.0
 10
301.5282048240629
 20
-88.41395750473184
 30
0.0
 10
301.6904087505022
 20
-88.4875270450183
 30
0.0
 10
301.9453425300945
 20
-88.71274557333045
 30
0.0
 10
302.3064116057428
 20
-89.10986516063785
 30
0.0
 10
302.6004447390642
 20
-89.60926954030414
 30
0.0
 10
302.83513385604
 20
-90.20999067822875
 30
0.0
 10
302.9943017438732
 20
-90.88925310331226
 30
0.0
 10
303.0702389945019
 20
-91.5330250794248
 30
0.0
 10
303.0775203768215
 20
-91.95832424283238
 30
0.0
 10
303.0801992510492
 20
-92.11479494000437
 30
0.0
  0
SPLINE
  5
FF
330
1F
100
AcDbEntity
  8
0
  6
Continuous
 62
     7
370
    25
100
AcDbSpline
210
0.0
220
0.0
230
1.0
 70
     8
 71
     3
 72
    29
 73
    25
 74
     0
 42
0.00000001
 43
0.00000001
 40
0.0
 40
0.0
 40
0.0
 40
0.0
 40
0.0247260444192887
 40
0.0721452418080028
 40
0.1197017681886692
 40
0.167398193876126
 40
0.2152270022214836
 40
0.2631635709399339
 40
0.3111754947442867
 40
0.3592271199510724
 40
0.4072815112393453
 40
0.4552890889974248
 40
0.503211877173075
 40
0.5510129431624061
 40
0.5986583006153883
 40
0.646121970820962
 40
0.6933961654322931
 40
0.7405102814727127
 40
0.7875633730523065
 40
0.8346929892732565
 40
0.8822516715633
 40
0.9308513456212962
 40
0.9813821832209394
 40
1.0
 40
1.0
 40
1.0
 40
1.0
 10
303.0801992510492
 20
-92.11479494000437
 30
0.0
 10
303.0780467697645
 20
-92.25792791012854
 30
0.0
 10
303.0717662956156
 20
-92.67555891350293
 30
0.0
 10
303.000821675288
 20
-93.40919194204605
 30
0.0
 10
302.8398454781265
 20
-94.31903762525381
 30
0.0
 10
302.5979035497155
 20
-95.25760563185068
 30
0.0
 10
302.2785465736137
 20
-96.21032249328879
 30
0.0
 10
301.885036428677
 20
-97.16376459716714
 30
0.0
 10
301.4224664925562
 20
-98.10409614196264
 30
0.0
 10
300.8970701090561
 20
-99.01780528273851
 30
0.0
 10
300.3163169056933
 20
-99.89173497966914
 30
0.0
 10
299.6887350890404
 20
-100.7134161219974
 30
0.0
 10
299.0238066788677
 20
-101.4712796911411
 30
0.0
 10
298.3317851861338
 20
-102.1549294348711
 30
0.0
 10
297.6236161781015
 20
-102.7553048789394
 30
0.0
 10
296.9107754536274
 20
-103.2649405992304
 30
0.0
 10
296.2050147469008
 20
-103.6782798595752
 30
0.0
 10
295.5180107507155
 20
-103.9919182812858
 30
0.0
 10
294.8610053793185
 20
-104.2049336381819
 30
0.0
 10
294.2441068042818
 20
-104.3183506205891
 30
0.0
 10
293.672946382595
 20
-104.3377879627608
 30
0.0
 10
293.1534531797531
 20
-104.2594125550928
 30
0.0
 10
292.7757788828859
 20
-104.1458496970325
 30
0.0
 10
292.5872000328418
 20
-104.0243247877967
 30
0.0
 10
292.5364264276274
 20
-103.9916050116192
 30
0.0
  0
SPLINE
  5
100
330
1F
100
AcDbEntity
  8
0
  6
Continuous
 62
     7
370
    25
100
AcDbSpline
210
0.0
220
0.0
230
1.0
 70
     8
 71
     3
 72
    19
 73
    15
 74
     0
 42
0.00000001
 43
0.00000001
 40
0.0
 40
0.0
 40
0.0
 40
0.0
 40
0.0359422129265132
 40
0.1286965189893115
 40
0.2211527663436301
 40
0.3129576066360062
 40
0.4039643212591671
 40
0.4942085016658273
 40
0.5838274067221866
 40
0.6729875415914242
 40
0.7618425003400697
 40
0.850516081992291
 40
0.9390999001309348
 40
1.0
 40
1.0
 40
1.0
 40
1.0
 10
309.8776897025422
 20
-33.37286628207475
 30
0.0
 10
309.9878702080647
 20
-33.43497319374668
 30
0.0
 10
310.3823881402304
 20
-33.65735636624902
 30
0.0
 10
310.9963292662659
 20
-34.14935641207252
 30
0.0
 10
311.7163534964599
 20
-34.84524846747386
 30
0.0
 10
312.3624388492788
 20
-35.64610604621984
 30
0.0
 10
312.9362811177749
 20
-36.53833891880961
 30
0.0
 10
313.4344099300624
 20
-37.5192054672843
 30
0.0
 10
313.855585129812
 20
-38.58343896637892
 30
0.0
 10
314.198154149557
 20
-39.72674185072823
 30
0.0
 10
314.4611915280002
 20
-40.94408937512011
 30
0.0
 10
314.6416575080627
 20
-42.23145250144734
 30
0.0
 10
314.7339527390281
 20
-43.43911280238913
 30
0.0
 10
314.7435508483245
 20
-44.23012655815927
 30
0.0
 10
314.7474611406322
 20
-44.55238742318237
 30
0.0
  0
SPLINE
  5
101
330
1F
100
AcDbEntity
  8
0
  6
Continuous
 62
     7
370
    25
100
AcDbSpline
210
0.0
220
0.0
230
1.0
 70
     8
 71
     3
 72
    42
 73
    38
 74
     0
 42
0.00000001
 43
0.00000001
 40
0.0
 40
0.0
 40
0.0
 40
0.0
 40
0.0151946953515709
 40
0.0441790876718522
 40
0.0731822157435934
 40
0.1022021941273228
 40
0.1312408914998337
 40
0.1602983180268262
 40
0.1893732714741976
 40
0.2184637826714931
 40
0.2475674128049307
 40
0.2766814457726185
 40
0.3058030079576332
 40
0.3349291390430318
 40
0.364056831006439
 40
0.393182539155554
 40
0.4223027084479967
 40
0.4514142835094975
 40
0.4805142269830833
 40
0.5095995610056716
 40
0.5386674425354462
 40
0.5677152902920354
 40
0.5967409880640528
 40
0.6257431981331888
 40
0.6547218294889465
 40
0.6836787168985896
 40
0.7126185746852418
 40
0.7415502839908846
 40
0.7704837029679129
 40
0.7994378303201635
 40
0.8284413749681038
 40
0.8575334977113527
 40
0.8867635349697492
 40
0.9161868893298032
 40
0.9458541902694
 40
0.9757916171183957
 40
1.0
 40
1.0
 40
1.0
 40
1.0
 10
314.7474611406322
 20
-44.55238742318237
 30
0.0
 10
314.7451481666656
 20
-44.80136926648771
 30
0.0
 10
314.7384231170814
 20
-45.52529234816692
 30
0.0
 10
314.6633593604834
 20
-46.76278204386461
 30
0.0
 10
314.4944188408398
 20
-48.27315237529216
 30
0.0
 10
314.2407652794251
 20
-49.81958814734587
 30
0.0
 10
313.9047058312649
 20
-51.39350908196324
 30
0.0
 10
313.4871703077952
 20
-52.98746709755083
 30
0.0
 10
312.9900293681011
 20
-54.59356096838067
 30
0.0
 10
312.4154633240708
 20
-56.20390220322331
 30
0.0
 10
311.7661133392197
 20
-57.81055506909873
 30
0.0
 10
311.0450195597625
 20
-59.40561254681801
 30
0.0
 10
310.2556143726908
 20
-60.98123180180544
 30
0.0
 10
309.4016995716394
 20
-62.5296774361242
 30
0.0
 10
308.4874322246719
 20
-64.04335156175307
 30
0.0
 10
307.5173052833016
 20
-65.51483364735482
 30
0.0
 10
306.4961214988339
 20
-66.93692829273206
 30
0.0
 10
305.4289638428715
 20
-68.30271070099056
 30
0.0
 10
304.3211706311253
 20
-69.60556205097845
 30
0.0
 10
303.1783167384133
 20
-70.83919800160865
 30
0.0
 10
302.0061875573366
 20
-71.99770608686258
 30
0.0
 10
300.8107505509458
 20
-73.07558376005127
 30
0.0
 10
299.598123339298
 20
-74.06777717454943
 30
0.0
 10
298.3745367948925
 20
-74.96972053068927
 30
0.0
 10
297.1462910755759
 20
-75.77737525654516
 30
0.0
 10
295.9197018557056
 20
-76.48726741073916
 30
0.0
 10
294.7010337464682
 20
-77.09651973959562
 30
0.0
 10
293.4964841745914
 20
-77.6028453804628
 30
0.0
 10
292.3120585759245
 20
-78.00458520591982
 30
0.0
 10
291.1534365830098
 20
-78.30070779464351
 30
0.0
 10
290.0257972970379
 20
-78.49071854250317
 30
0.0
 10
288.9336549402418
 20
-78.57461942560886
 30
0.0
 10
287.8810452899293
 20
-78.5522500286778
 30
0.0
 10
286.8706292228781
 20
-78.42466101716656
 30
0.0
 10
285.90751886678
 20
-78.18767103717735
 30
0.0
 10
285.0476011789185
 20
-77.87741572430167
 30
0.0
 10
284.5375379337377
 20
-77.59672548626233
 30
0.0
 10
284.3094906223279
 20
-77.47122996246475
 30
0.0
  0
SPLINE
  5
102
330
1F
100
AcDbEntity
  8
0
  6
Continuous
 62
     7
370
    25
100
AcDbSpline
210
0.0
220
0.0
230
1.0
 70
     8
 71
     3
 72
    42
 73
    38
 74
     0
 42
0.00000001
 43
0.00000001
 40
0.0
 40
0.0
 40
0.0
 40
0.0
 40
0.0042527364957261
 40
0.034286028179198
 40
0.0641973698870459
 40
0.0940326298268119
 40
0.1238267924703188
 40
0.1536047014458893
 40
0.1833805570251636
 40
0.2131641360392043
 40
0.2429625418495993
 40
0.2727792927101541
 40
0.3026154617007202
 40
0.3324705018020321
 40
0.3623428225042157
 40
0.3922301813082498
 40
0.4221299419781637
 40
0.4520392393230944
 40
0.4819550799274188
 40
0.5118744002046114
 40
0.5417940973329813
 40
0.5717101126629032
 40
0.6016192008741198
 40
0.6315182273579447
 40
0.6614040895497214
 40
0.6912737714749125
 40
0.7211244394814721
 40
0.750953600054685
 40
0.7807593485131168
 40
0.8105407474843429
 40
0.8402983857552367
 40
0.8700351790523573
 40
0.8997574786581585
 40
0.9294753053570965
 40
0.9592011670944768
 40
0.9889587157690255
 40
1.0
 40
1.0
 40
1.0
 40
1.0
 10
290.2942018618095
 20
-78.42883108206514
 30
0.0
 10
290.2728524982851
 20
-78.38070309884426
 30
0.0
 10
290.1007315873988
 20
-77.99269001818958
 30
0.0
 10
289.8496427580257
 20
-77.1823822607529
 30
0.0
 10
289.5495853464442
 20
-76.00029681067592
 30
0.0
 10
289.3373850908865
 20
-74.73843332379025
 30
0.0
 10
289.2052586017928
 20
-73.41297252981694
 30
0.0
 10
289.1566513134856
 20
-72.02694128200162
 30
0.0
 10
289.1916147731521
 20
-70.58751791904523
 30
0.0
 10
289.3106162526234
 20
-69.10130839026863
 30
0.0
 10
289.5134730424897
 20
-67.57547742740917
 30
0.0
 10
289.79961638439
 20
-66.01737772580738
 30
0.0
 10
290.1680048824728
 20
-64.43460956278491
 30
0.0
 10
290.6171449960949
 20
-62.83493322360317
 30
0.0
 10
291.1450938640661
 20
-61.22621720933967
 30
0.0
 10
291.7494737804863
 20
-59.61638351326143
 30
0.0
 10
292.4274878627368
 20
-58.01335946116136
 30
0.0
 10
293.1759380738694
 20
-56.42503246982664
 30
0.0
 10
293.9912443023024
 20
-54.85920765566686
 30
0.0
 10
294.8694642854682
 20
-53.32356742577261
 30
0.0
 10
295.8063044331775
 20
-51.82564809681421
 30
0.0
 10
296.7971469486199
 20
-50.37278609498686
 30
0.0
 10
297.8370732381963
 20
-48.97207760866979
 30
0.0
 10
298.9208990589174
 20
-47.63032782801118
 30
0.0
 10
300.0431898577834
 20
-46.35402818139119
 30
0.0
 10
301.1982845800172
 20
-45.14932086424047
 30
0.0
 10
302.3803224223084
 20
-44.02196158602658
 30
0.0
 10
303.5832730010751
 20
-42.97727982218541
 30
0.0
 10
304.8009681404549
 20
-42.02014504019565
 30
0.0
 10
306.0271482937412
 20
-41.15490763319831
 30
0.0
 10
307.2554838674996
 20
-40.38543344320781
 30
0.0
 10
308.4797311379474
 20
-39.71479478417962
 30
0.0
 10
309.693424718511
 20
-39.14626795830722
 30
0.0
 10
310.89126735915
 20
-38.67953406872855
 30
0.0
 10
312.0642188257027
 20
-38.324821440242
 30
0.0
 10
312.9757773077835
 20
-38.10777768762792
 30
0.0
 10
313.4811887330932
 20
-38.04593352492908
 30
0.0
 10
313.617966939797
 20
-38.02919679670046
 30
0.0
  0
SPLINE
  5
103
330
1F
100
AcDbEntity
  8
0
  6
Continuous
 62
     7
370
    25
100
AcDbSpline
210
0.0
220
0.0
230
1.0
 70
     8
 71
     3
 72
    15
 73
    11
 74
     0
 42
0.00000001
 43
0.00000001
 40
0.0
 40
0.0
 40
0.0
 40
0.0
 40
0.0008090051870706
 40
0.1667313976828336
 40
0.3149126841058896
 40
0.4723587289041692
 40
0.6231113307678326
 40
0.7700606744544667
 40
0.9154036272089003
 40
1.0
 40
1.0
 40
1.0
 40
1.0
 10
301.527417786835
 20
-6.759519345963749
 30
0.0
 10
301.5282048240678
 20
-6.759876316159715
 30
0.0
 10
301.6904087505067
 20
-6.833445856446422
 30
0.0
 10
301.9453425300997
 20
-7.058664384758232
 30
0.0
 10
302.3064116057477
 20
-7.455783972065783
 30
0.0
 10
302.6004447390692
 20
-7.955188351732034
 30
0.0
 10
302.8351338560449
 20
-8.555909489656678
 30
0.0
 10
302.9943017438781
 20
-9.235171914740144
 30
0.0
 10
303.0702389945068
 20
-9.878943890852705
 30
0.0
 10
303.0775203768264
 20
-10.30424305426025
 30
0.0
 10
303.0801992510542
 20
-10.46071375143225
 30
0.0
  0
SPLINE
  5
104
330
1F
100
AcDbEntity
  8
0
  6
Continuous
 62
     7
370
    25
100
AcDbSpline
210
0.0
220
0.0
230
1.0
 70
     8
 71
     3
 72
    29
 73
    25
 74
     0
 42
0.00000001
 43
0.00000001
 40
0.0
 40
0.0
 40
0.0
 40
0.0
 40
0.0247260444192887
 40
0.0721452418080028
 40
0.1197017681886692
 40
0.167398193876126
 40
0.2152270022214836
 40
0.2631635709399339
 40
0.3111754947442867
 40
0.3592271199510724
 40
0.4072815112393453
 40
0.4552890889974248
 40
0.503211877173075
 40
0.5510129431624061
 40
0.5986583006153883
 40
0.646121970820962
 40
0.6933961654322931
 40
0.7405102814727127
 40
0.7875633730523065
 40
0.8346929892732565
 40
0.8822516715633
 40
0.9308513456212962
 40
0.9813821832209394
 40
1.0
 40
1.0
 40
1.0
 40
1.0
 10
303.0801992510542
 20
-10.46071375143225
 30
0.0
 10
303.0780467697694
 20
-10.60384672155643
 30
0.0
 10
303.0717662956206
 20
-11.02147772493077
 30
0.0
 10
303.000821675293
 20
-11.75511075347394
 30
0.0
 10
302.8398454781314
 20
-12.66495643668168
 30
0.0
 10
302.5979035497205
 20
-13.60352444327854
 30
0.0
 10
302.2785465736187
 20
-14.55624130471666
 30
0.0
 10
301.8850364286819
 20
-15.509683408595
 30
0.0
 10
301.4224664925612
 20
-16.45001495339052
 30
0.0
 10
300.897070109061
 20
-17.36372409416638
 30
0.0
 10
300.3163169056982
 20
-18.23765379109701
 30
0.0
 10
299.6887350890453
 20
-19.05933493342527
 30
0.0
 10
299.0238066788726
 20
-19.81719850256894
 30
0.0
 10
298.3317851861387
 20
-20.50084824629894
 30
0.0
 10
297.6236161781065
 20
-21.10122369036725
 30
0.0
 10
296.9107754536323
 20
-21.6108594106583
 30
0.0
 10
296.2050147469058
 20
-22.02419867100304
 30
0.0
 10
295.5180107507205
 20
-22.33783709271363
 30
0.0
 10
294.8610053793234
 20
-22.55085244960981
 30
0.0
 10
294.2441068042868
 20
-22.66426943201692
 30
0.0
 10
293.6729463825999
 20
-22.68370677418872
 30
0.0
 10
293.1534531797581
 20
-22.60533136652061
 30
0.0
 10
292.7757788828908
 20
-22.49176850846037
 30
0.0
 10
292.5872000328467
 20
-22.37024359922458
 30
0.0
 10
292.5364264276323
 20
-22.33752382304713
 30
0.0
  0
SPLINE
  5
105
330
1F
100
AcDbEntity
  8
0
  6
Continuous
 62
     7
370
    25
100
AcDbSpline
210
0.0
220
0.0
230
1.0
 70
     8
 71
     3
 72
    15
 73
    11
 74
     0
 42
0.00000001
 43
0.00000001
 40
0.0
 40
0.0
 40
0.0
 40
0.0
 40
0.0008090051870487
 40
0.1667313976828022
 40
0.314912684105859
 40
0.4723587289041366
 40
0.6231113307678043
 40
0.7700606744544323
 40
0.9154036272088751
 40
1.0
 40
1.0
 40
1.0
 40
1.0
 10
266.1720787275077
 20
-67.99676273581329
 30
0.0
 10
266.1728657647405
 20
-67.99711970600923
 30
0.0
 10
266.3350696911794
 20
-68.07068924629584
 30
0.0
 10
266.5900034707723
 20
-68.29590777460771
 30
0.0
 10
266.9510725464204
 20
-68.69302736191521
 30
0.0
 10
267.2451056797418
 20
-69.19243174158144
 30
0.0
 10
267.4797947967176
 20
-69.79315287950607
 30
0.0
 10
267.6389626845507
 20
-70.47241530458953
 30
0.0
 10
267.7148999351796
 20
-71.11618728070209
 30
0.0
 10
267.7221813174991
 20
-71.54148644410972
 30
0.0
 10
267.7248601917269
 20
-71.69795714128178
 30
0.0
  0
SPLINE
  5
106
330
1F
100
AcDbEntity
  8
0
  6
Continuous
 62
     7
370
    25
100
AcDbSpline
210
0.0
220
0.0
230
1.0
 70
     8
 71
     3
 72
    29
 73
    25
 74
     0
 42
0.00000001
 43
0.00000001
 40
0.0
 40
0.0
 40
0.0
 40
0.0
 40
0.0247260444192888
 40
0.0721452418079929
 40
0.1197017681886626
 40
0.1673981938761214
 40
0.2152270022214756
 40
0.2631635709399275
 40
0.3111754947442801
 40
0.3592271199510659
 40
0.4072815112393385
 40
0.455289088997417
 40
0.5032118771730691
 40
0.5510129431623996
 40
0.5986583006153816
 40
0.6461219708209575
 40
0.6933961654322888
 40
0.7405102814727096
 40
0.7875633730523023
 40
0.834692989273254
 40
0.8822516715632966
 40
0.9308513456212909
 40
0.9813821832209364
 40
1.0
 40
1.0
 40
1.0
 40
1.0
 10
267.7248601917269
 20
-71.69795714128178
 30
0.0
 10
267.7227077104421
 20
-71.84109011140595
 30
0.0
 10
267.7164272362933
 20
-72.25872111478026
 30
0.0
 10
267.6454826159656
 20
-72.99235414332335
 30
0.0
 10
267.4845064188041
 20
-73.90219982653107
 30
0.0
 10
267.2425644903932
 20
-74.84076783312794
 30
0.0
 10
266.9232075142914
 20
-75.79348469456605
 30
0.0
 10
266.5296973693547
 20
-76.74692679844439
 30
0.0
 10
266.0671274332339
 20
-77.68725834323993
 30
0.0
 10
265.5417310497338
 20
-78.60096748401578
 30
0.0
 10
264.960977846371
 20
-79.47489718094641
 30
0.0
 10
264.3333960297181
 20
-80.29657832327469
 30
0.0
 10
263.6684676195454
 20
-81.05444189241837
 30
0.0
 10
262.9764461268115
 20
-81.7380916361484
 30
0.0
 10
262.2682771187793
 20
-82.33846708021669
 30
0.0
 10
261.555436394305
 20
-82.84810280050779
 30
0.0
 10
260.8496756875784
 20
-83.26144206085254
 30
0.0
 10
260.1626716913932
 20
-83.57508048256312
 30
0.0
 10
259.5056663199962
 20
-83.78809583945932
 30
0.0
 10
258.8887677449596
 20
-83.90151282186645
 30
0.0
 10
258.3176073232727
 20
-83.92095016403822
 30
0.0
 10
257.7981141204307
 20
-83.84257475637015
 30
0.0
 10
257.4204398235635
 20
-83.72901189830989
 30
0.0
 10
257.2318609735194
 20
-83.6074869890741
 30
0.0
 10
257.181087368305
 20
-83.57476721289666
 30
0.0
  0
LWPOLYLINE
  5
107
330
1F
100
AcDbEntity
  8
0
  6
Continuous
 62
     7
370
    25
100
AcDbPolyline
 90
      142
 70
   128
 43
0.0
 10
345.0923925599
 20
-26.795510991
 10
345.0439581803
 20
-24.3136433275
 10
344.8987512034
 20
-21.8926243268
 10
344.6570599243
 20
-19.5372606981
 10
344.3193641987
 20
-17.252228798
 10
343.8863344901
 20
-15.0420653456
 10
343.3588305389
 20
-12.911158416
 10
342.7378996555
 20
-10.8637387276
 10
342.0247746405
 20
-8.9038712427
 10
341.2208713378
 20
-7.0354470968
 10
340.3277858228
 20
-5.262175873
 10
339.3472912343
 20
-3.5875782373
 10
338.2813342535
 20
-2.0149789482
 10
337.1320312392
 20
-0.5475002561
 10
335.9016640263
 20
0.8119442959
 10
334.5926753949
 20
2.0606556566
 10
333.2076642209
 20
3.1961546251
 10
331.7493803156
 20
4.2161867732
 10
330.2207189668
 20
5.1187269217
 10
328.6247151902
 20
5.9019831605
 10
326.9645377034
 20
6.5644004069
 10
325.2434826353
 20
7.1046634928
 10
323.4649669813
 20
7.5216997758
 10
321.6325218196
 20
7.814681269
 10
319.7497853005
 20
7.9830262848
 10
317.8204954231
 20
8.0264005897
 10
315.8484826138
 20
7.944718068
 10
313.8376621215
 20
7.7381408929
 10
311.7920262443
 20
7.4070792042
 10
309.7156364027
 20
6.9521902941
 10
307.6126150766
 20
6.3743773027
 10
305.4871376202
 20
5.674787424
 10
303.3434239723
 20
4.854809629
 10
301.1857302777
 20
3.9160719077
 10
299.0183404378
 20
2.860438037
 10
296.8455576042
 20
1.6900038802
 10
294.6716956364
 20
0.407093226
 10
292.5010705359
 20
-0.9857468253
 10
290.3379918779
 20
-2.4857509186
 10
288.186754255
 20
-4.0899409347
 10
286.0516287503
 20
-5.7951319029
 10
283.9368544578
 20
-7.5979383242
 10
281.8466300663
 20
-9.4947808934
 10
279.7851055226
 20
-11.4818936051
 10
277.7563737929
 20
-13.5553312311
 10
275.7644627364
 20
-15.7109771528
 10
273.8133271081
 20
-17.9445515347
 10
271.9068407071
 20
-20.2516198218
 10
270.0487886857
 20
-22.6276015434
 10
268.2428600342
 20
-25.0677794079
 10
266.4926402567
 20
-27.5673086678
 10
264.8016042528
 20
-30.1212267393
 10
263.1731094177
 20
-32.7244630544
 10
261.6103889772
 20
-35.3718491283
 10
260.1165455682
 20
-38.0581288211
 10
258.6945450785
 20
-40.7779687731
 10
257.3472107583
 20
-43.5259689939
 10
256.0772176153
 20
-46.2966735833
 10
254.8870871033
 20
-49.0845815639
 10
253.7791821163
 20
-51.8841578024
 10
252.755702297
 20
-54.6898439994
 10
251.81867967
 20
-57.4960697246
 10
250.9699746068
 20
-60.2972634766
 10
250.2112721329
 20
-63.0878637444
 10
249.5440785818
 20
-65.8623300497
 10
248.9697186045
 20
-68.6151539463
 10
248.4893325395
 20
-71.3408699571
 10
248.103874149
 20
-74.0340664255
 10
247.8141087249
 20
-76.689396259
 10
247.6206115697
 20
-79.3015875461
 10
247.5237668539
 20
-81.8654540228
 10
247.5237668539
 20
-84.3759053695
 10
247.6206115697
 20
-86.8279573174
 10
247.8141087249
 20
-89.2167415444
 10
248.103874149
 20
-91.5375153405
 10
248.4893325395
 20
-93.7856710242
 10
248.9697186045
 20
-95.9567450904
 10
249.5440785818
 20
-98.0464270725
 10
250.2112721329
 20
-100.0505681004
 10
250.9699746068
 20
-101.9651891377
 10
251.81867967
 20
-103.7864888813
 10
252.755702297
 20
-105.5108513094
 10
253.7791821163
 20
-107.13485286
 10
254.8870871033
 20
-108.6552692281
 10
256.0772176153
 20
-110.069081768
 10
257.3472107583
 20
-111.3734834857
 10
258.6945450785
 20
-112.5658846122
 10
260.1165455682
 20
-113.6439177456
 10
261.6103889772
 20
-114.6054425508
 10
263.1731094177
 20
-115.4485500094
 10
264.8016042528
 20
-116.1715662095
 10
266.4926402567
 20
-116.7730556694
 10
268.2428600342
 20
-117.2518241875
 10
270.0487886857
 20
-117.606921213
 10
271.9068407071
 20
-117.8376417339
 10
273.8133271081
 20
-117.9435276759
 10
275.7644627364
 20
-117.9243688121
 10
277.7563737929
 20
-117.7802031808
 10
279.7851055226
 20
-117.5113170095
 10
281.8466300663
 20
-117.1182441468
 10
283.9368544578
 20
-116.6017650025
 10
286.0516287503
 20
-115.962904998
 10
288.186754255
 20
-115.2029325309
 10
290.3379918779
 20
-114.3233564561
 10
292.5010705359
 20
-113.3259230904
 10
294.6716956364
 20
-112.2126127455
 10
296.8455576042
 20
-110.9856357961
 10
299.0183404378
 20
-109.6474282912
 10
301.1857302777
 20
-108.2006471181
 10
303.3434239723
 20
-106.6481647268
 10
305.4871376202
 20
-104.9930634274
 10
307.6126150766
 20
-103.2386292703
 10
309.7156364027
 20
-101.3883455222
 10
311.7920262443
 20
-99.4458857501
 10
313.8376621215
 20
-97.4151065282
 10
315.8484826138
 20
-95.3000397805
 10
317.8204954231
 20
-93.1048847765
 10
319.7497853005
 20
-90.833999793
 10
321.6325218196
 20
-88.4918934621
 10
323.4649669813
 20
-86.0832158191
 10
325.2434826353
 20
-83.6127490704
 10
326.9645377034
 20
-81.0853980992
 10
328.6247151902
 20
-78.5061807268
 10
330.2207189668
 20
-75.8802177506
 10
331.7493803156
 20
-73.212722777
 10
333.2076642209
 20
-70.5089918703
 10
334.5926753949
 20
-67.7743930381
 10
335.9016640263
 20
-65.0143555731
 10
337.1320312392
 20
-62.2343592743
 10
338.2813342535
 20
-59.439923567
 10
339.3472912343
 20
-56.6365965446
 10
340.3277858228
 20
-53.8299439535
 10
341.2208713378
 20
-51.0255381425
 10
342.0247746405
 20
-48.2289469998
 10
342.7378996555
 20
-45.4457228983
 10
343.3588305389
 20
-42.6813916718
 10
343.8863344901
 20
-39.941441644
 10
344.3193641987
 20
-37.2313127321
 10
344.6570599243
 20
-34.5563856463
 10
344.8987512034
 20
-31.9219712066
 10
345.0439581803
 20
-29.333299799
 10
345.0923925599
 20
-26.795510991
  0
ARC
  5
108
330
1F
100
AcDbEntity
  8
0
  6
Continuous
 62
     7
370
    25
100
AcDbCircle
 10
273.7508926913
 20
-95.6584865174
 30
0.0
 40
23.47932073135633
100
AcDbArc
 50
230.5939635531
 51
249.3003426831
  0
ARC
  5
109
330
1F
100
AcDbEntity
  8
0
  6
Continuous
 62
     7
370
    25
100
AcDbCircle
 10
320.271793976
 20
-15.0730152068
 30
0.0
 40
23.47015787831479
100
AcDbArc
 50
51.1835946072
 51
69.1236490922
  0
ARC
  5
10A
330
1F
100
AcDbEntity
  8
0
  6
Continuous
 62
     7
370
    25
100
AcDbCircle
 10
330.1274116395
 20
-20.8472475176
 30
0.0
 40
23.54399424785805
100
AcDbArc
 50
50.6004141944
 51
59.9820893095
  0
ARC
  5
10B
330
1F
100
AcDbEntity
  8
0
  6
Continuous
 62
     7
370
    25
100
AcDbCircle
 10
283.6529016991
 20
-101.3602719964
 30
0.0
 40
23.4924278931337
100
AcDbArc
 50
240.0134689359
 51
249.2630081579
  0
LWPOLYLINE
  5
10C
330
1F
100
AcDbEntity
  8
0
  6
Continuous
 62
     7
370
    25
100
AcDbPolyline
 90
       54
 70
   128
 43
0.0
 10
303.3730924699
 20
-91.7065908841
 10
303.3234613238
 20
-92.7009910449
 10
303.1752645981
 20
-93.7387349088
 10
302.9305826501
 20
-94.8052548265
 10
302.5928502777
 20
-95.8855791964
 10
302.1668085034
 20
-96.9645426323
 10
301.6584380196
 20
-98.0269988528
 10
301.0748752336
 20
-99.0580333013
 10
300.4243120877
 20
-100.0431725145
 10
299.7158810625
 20
-100.968587297
 10
298.9595269767
 20
-101.821286854
 10
298.1658673836
 20
-102.5893011527
 10
297.3460435242
 20
-103.261848956
 10
296.5115639285
 20
-103.8294891669
 10
295.6741428608
 20
-104.2842533611
 10
294.8455358771
 20
-104.6197576462
 10
294.0373748032
 20
-104.8312922775
 10
293.2610044492
 20
-104.9158877725
 10
292.5273233528
 20
-104.8723565957
 10
291.8466307886
 20
-104.7013098296
 10
291.2284821879
 20
-104.4051485958
 10
290.6815550022
 20
-103.9880303488
 10
290.2135268902
 20
-103.4558105145
 10
289.8309679407
 20
-102.8159602927
 10
289.5392484428
 20
-102.0774617779
 10
289.3424634988
 20
-101.2506818705
 10
289.2433755379
 20
-100.3472267481
 10
289.2433755379
 20
-99.3797789402
 10
289.3424634988
 20
-98.3619192933
 10
289.5392484428
 20
-97.3079363257
 10
289.8309679407
 20
-96.2326256479
 10
290.2135268902
 20
-95.1510822647
 10
290.6815550022
 20
-94.0784886745
 10
291.2284821879
 20
-93.02990174
 10
291.8466307886
 20
-92.0200413234
 10
292.5273233528
 20
-91.0630836512
 10
293.2610044492
 20
-90.1724623115
 10
294.0373748032
 20
-89.3606796756
 10
294.8455358771
 20
-88.6391313922
 10
295.6741428608
 20
-88.0179464177
 10
296.5115639285
 20
-87.5058448274
 10
297.3460435242
 20
-87.1100154051
 10
298.1658673836
 20
-86.8360147282
 10
298.9595269767
 20
-86.6876891656
 10
299.7158810625
 20
-86.6671208831
 10
300.4243120877
 20
-86.7745986142
 10
301.0748752336
 20
-87.0086136072
 10
301.6584380196
 20
-87.3658808047
 10
302.1668085034
 20
-87.8413849582
 10
302.5928502777
 20
-88.4284510317
 10
302.9305826501
 20
-89.1188379046
 10
303.1752645981
 20
-89.9028540583
 10
303.3234613238
 20
-90.7694936248
 10
303.3730924699
 20
-91.7065908841
  0
LWPOLYLINE
  5
10D
330
1F
100
AcDbEntity
  8
0
  6
Continuous
 62
     7
370
    25
100
AcDbPolyline
 90
       54
 70
   128
 43
0.0
 10
303.3730924699
 20
-10.0525096955
 10
303.3234613238
 20
-11.0469098564
 10
303.1752645982
 20
-12.0846537202
 10
302.9305826501
 20
-13.1511736379
 10
302.5928502777
 20
-14.2314980078
 10
302.1668085034
 20
-15.3104614437
 10
301.6584380196
 20
-16.3729176642
 10
301.0748752336
 20
-17.4039521128
 10
300.4243120877
 20
-18.3890913259
 10
299.7158810626
 20
-19.3145061084
 10
298.9595269767
 20
-20.1672056654
 10
298.1658673836
 20
-20.9352199641
 10
297.3460435243
 20
-21.6077677674
 10
296.5115639285
 20
-22.1754079783
 10
295.6741428608
 20
-22.6301721725
 10
294.8455358771
 20
-22.9656764576
 10
294.0373748032
 20
-23.1772110889
 10
293.2610044492
 20
-23.2618065839
 10
292.5273233529
 20
-23.2182754072
 10
291.8466307886
 20
-23.0472286411
 10
291.2284821879
 20
-22.7510674073
 10
290.6815550022
 20
-22.3339491603
 10
290.2135268902
 20
-21.8017293259
 10
289.8309679407
 20
-21.1618791041
 10
289.5392484428
 20
-20.4233805894
 10
289.3424634988
 20
-19.596600682
 10
289.2433755379
 20
-18.6931455595
 10
289.2433755379
 20
-17.7256977516
 10
289.3424634988
 20
-16.7078381047
 10
289.5392484428
 20
-15.6538551371
 10
289.8309679407
 20
-14.5785444593
 10
290.2135268902
 20
-13.4970010761
 10
290.6815550022
 20
-12.4244074859
 10
291.2284821879
 20
-11.3758205514
 10
291.8466307886
 20
-10.3659601348
 10
292.5273233529
 20
-9.4090024626
 10
293.2610044492
 20
-8.5183811229
 10
294.0373748032
 20
-7.706598487
 10
294.8455358771
 20
-6.9850502037
 10
295.6741428608
 20
-6.3638652291
 10
296.5115639285
 20
-5.8517636388
 10
297.3460435243
 20
-5.4559342165
 10
298.1658673836
 20
-5.1819335396
 10
298.9595269767
 20
-5.033607977
 10
299.7158810626
 20
-5.0130396945
 10
300.4243120877
 20
-5.1205174256
 10
301.0748752336
 20
-5.3545324187
 10
301.6584380196
 20
-5.7117996161
 10
302.1668085034
 20
-6.1873037696
 10
302.5928502777
 20
-6.7743698432
 10
302.9305826501
 20
-7.464756716
 10
303.1752645982
 20
-8.2487728697
 10
303.3234613238
 20
-9.1154124362
 10
303.3730924699
 20
-10.0525096955
  0
LWPOLYLINE
  5
10E
330
1F
100
AcDbEntity
  8
0
  6
Continuous
 62
     7
370
    25
100
AcDbPolyline
 90
       88
 70
   128
 43
0.0
 10
315.0403543594
 20
-44.1441833673
 10
314.9915078722
 20
-45.7337552855
 10
314.8452230733
 20
-47.3714368656
 10
314.6022626241
 20
-49.0486899941
 10
314.2638932078
 20
-50.7567702497
 10
313.8318789259
 20
-52.4867724929
 10
313.3084721007
 20
-54.2296772931
 10
312.6964015332
 20
-55.9763979517
 10
311.9988582759
 20
-57.7178278759
 10
311.2194789962
 20
-59.4448880565
 10
310.362327017
 20
-61.1485744015
 10
309.4318711317
 20
-62.8200046789
 10
308.4329623064
 20
-64.4504648254
 10
307.3708083894
 20
-66.0314543766
 10
306.2509469592
 20
-67.5547307852
 10
305.0792164548
 20
-69.0123523932
 10
303.8617257365
 20
-70.3967198365
 10
302.6048222373
 20
-71.7006156644
 10
301.3150588698
 20
-72.9172419675
 10
299.9991598633
 20
-74.0402558199
 10
298.6639857056
 20
-75.0638023472
 10
297.3164973768
 20
-75.9825452518
 10
295.9637200569
 20
-76.7916946336
 10
294.6127065005
 20
-77.4870319624
 10
293.2705002668
 20
-78.0649320713
 10
291.9440989976
 20
-78.5223820568
 10
290.6404179349
 20
-78.8569969864
 10
289.3662538682
 20
-79.0670323328
 10
288.1282496988
 20
-79.151393069
 10
286.9328598073
 20
-79.1096393772
 10
285.7863164031
 20
-78.9419889418
 10
284.6945970325
 20
-78.6493158145
 10
283.663393415
 20
-78.2331458575
 10
282.6980817686
 20
-77.6956487882
 10
281.8036947813
 20
-77.0396268676
 10
280.9848953728
 20
-76.26850029
 10
280.2459523839
 20
-75.3862893525
 10
279.5907183214
 20
-74.3975934944
 10
279.0226092722
 20
-73.307567318
 10
278.5445870938
 20
-72.1218937152
 10
278.1591439725
 20
-70.8467542391
 10
277.8682894303
 20
-69.4887968764
 10
277.6735398481
 20
-68.0551013882
 10
277.5759105601
 20
-66.5531423987
 10
277.5759105601
 20
-64.9907504268
 10
277.6735398481
 20
-63.3760710607
 10
277.8682894303
 20
-61.717522491
 10
278.1591439725
 20
-60.0237516219
 10
278.5445870938
 20
-58.3035889906
 10
279.0226092722
 20
-56.5660027284
 10
279.5907183214
 20
-54.8200518055
 10
280.2459523839
 20
-53.0748388017
 10
280.9848953728
 20
-51.3394624494
 10
281.8036947813
 20
-49.6229701974
 10
282.6980817686
 20
-47.9343110416
 10
283.663393415
 20
-46.2822888687
 10
284.6945970325
 20
-44.6755165576
 10
285.7863164031
 20
-43.122371075
 10
286.9328598073
 20
-41.6309498023
 10
288.1282496988
 20
-40.2090283194
 10
289.3662538682
 20
-38.8640198667
 10
290.6404179349
 20
-37.6029366952
 10
291.9440989976
 20
-36.4323535089
 10
293.2705002668
 20
-35.3583731863
 10
294.6127065005
 20
-34.3865949636
 10
295.9637200569
 20
-33.5220852426
 10
297.3164973768
 20
-32.7693511765
 10
298.6639857056
 20
-32.1323171722
 10
299.9991598633
 20
-31.6143044301
 10
301.3150588698
 20
-31.2180136288
 10
302.6048222373
 20
-30.945510845
 10
303.8617257365
 20
-30.798216782
 10
305.0792164548
 20
-30.7768993628
 10
306.2509469592
 20
-30.8816697267
 10
307.3708083894
 20
-31.1119816495
 10
308.4329623064
 20
-31.4666343914
 10
309.4318711317
 20
-31.9437789573
 10
310.362327017
 20
-32.5409277363
 10
311.2194789962
 20
-33.2549674712
 10
311.9988582759
 20
-34.0821754894
 10
312.6964015332
 20
-35.0182391114
 10
313.3084721007
 20
-36.0582781349
 10
313.8318789259
 20
-37.196870278
 10
314.2638932078
 20
-38.4280794484
 10
314.6022626241
 20
-39.7454866916
 10
314.8452230733
 20
-41.1422236564
 10
314.9915078722
 20
-42.6110084028
 10
315.0403543594
 20
-44.1441833673
  0
LWPOLYLINE
  5
10F
330
1F
100
AcDbEntity
  8
0
  6
Continuous
 62
     7
370
    25
100
AcDbPolyline
 90
       54
 70
   128
 43
0.0
 10
338.7284315292
 20
-30.4693474942
 10
338.6788003831
 20
-31.4637476551
 10
338.5306036575
 20
-32.5014915189
 10
338.2859217094
 20
-33.5680114367
 10
337.9481893371
 20
-34.6483358065
 10
337.5221475627
 20
-35.7272992425
 10
337.0137770789
 20
-36.7897554629
 10
336.4302142929
 20
-37.8207899115
 10
335.7796511471
 20
-38.8059291246
 10
335.0712201219
 20
-39.7313439072
 10
334.314866036
 20
-40.5840434641
 10
333.5212064429
 20
-41.3520577629
 10
332.7013825836
 20
-42.0246055661
 10
331.8669029878
 20
-42.592245777
 10
331.0294819201
 20
-43.0470099712
 10
330.2008749364
 20
-43.3825142564
 10
329.3927138626
 20
-43.5940488877
 10
328.6163435085
 20
-43.6786443826
 10
327.8826624122
 20
-43.6351132059
 10
327.2019698479
 20
-43.4640664398
 10
326.5838212473
 20
-43.167905206
 10
326.0368940615
 20
-42.750786959
 10
325.5688659495
 20
-42.2185671247
 10
325.1863070001
 20
-41.5787169028
 10
324.8945875022
 20
-40.8402183881
 10
324.6978025581
 20
-40.0134384807
 10
324.5987145972
 20
-39.1099833583
 10
324.5987145972
 20
-38.1425355503
 10
324.6978025581
 20
-37.1246759034
 10
324.8945875022
 20
-36.0706929358
 10
325.1863070001
 20
-34.995382258
 10
325.5688659495
 20
-33.9138388748
 10
326.0368940615
 20
-32.8412452846
 10
326.5838212473
 20
-31.7926583502
 10
327.2019698479
 20
-30.7827979335
 10
327.8826624122
 20
-29.8258402613
 10
328.6163435085
 20
-28.9352189216
 10
329.3927138626
 20
-28.1234362857
 10
330.2008749364
 20
-27.4018880024
 10
331.0294819201
 20
-26.7807030279
 10
331.8669029878
 20
-26.2686014376
 10
332.7013825836
 20
-25.8727720152
 10
333.5212064429
 20
-25.5987713383
 10
334.314866036
 20
-25.4504457757
 10
335.0712201219
 20
-25.4298774932
 10
335.7796511471
 20
-25.5373552243
 10
336.4302142929
 20
-25.7713702174
 10
337.0137770789
 20
-26.1286374148
 10
337.5221475627
 20
-26.6041415683
 10
337.9481893371
 20
-27.1912076419
 10
338.2859217094
 20
-27.8815945147
 10
338.5306036575
 20
-28.6656106685
 10
338.6788003831
 20
-29.5322502349
 10
338.7284315292
 20
-30.4693474942
  0
LWPOLYLINE
  5
110
330
1F
100
AcDbEntity
  8
0
  6
Continuous
 62
     7
370
    25
100
AcDbPolyline
 90
       54
 70
   128
 43
0.0
 10
268.0177534105
 20
-71.2897530854
 10
267.9681222645
 20
-72.2841532462
 10
267.8199255388
 20
-73.32189711
 10
267.5752435907
 20
-74.3884170278
 10
267.2375112184
 20
-75.4687413977
 10
266.811469444
 20
-76.5477048336
 10
266.3030989603
 20
-77.610161054
 10
265.7195361743
 20
-78.6411955026
 10
265.0689730284
 20
-79.6263347157
 10
264.3605420032
 20
-80.5517494983
 10
263.6041879174
 20
-81.4044490552
 10
262.8105283243
 20
-82.172463354
 10
261.9907044649
 20
-82.8450111572
 10
261.1562248692
 20
-83.4126513681
 10
260.3188038014
 20
-83.8674155624
 10
259.4901968178
 20
-84.2029198475
 10
258.6820357439
 20
-84.4144544788
 10
257.9056653899
 20
-84.4990499737
 10
257.1719842935
 20
-84.455518797
 10
256.4912917293
 20
-84.2844720309
 10
255.8731431286
 20
-83.9883107971
 10
255.3262159429
 20
-83.5711925501
 10
254.8581878309
 20
-83.0389727158
 10
254.4756288814
 20
-82.399122494
 10
254.1839093835
 20
-81.6606239792
 10
253.9871244395
 20
-80.8338440718
 10
253.8880364786
 20
-79.9303889494
 10
253.8880364786
 20
-78.9629411415
 10
253.9871244395
 20
-77.9450814946
 10
254.1839093835
 20
-76.891098527
 10
254.4756288814
 20
-75.8157878492
 10
254.8581878309
 20
-74.734244466
 10
255.3262159429
 20
-73.6616508757
 10
255.8731431286
 20
-72.6130639413
 10
256.4912917293
 20
-71.6032035247
 10
257.1719842935
 20
-70.6462458525
 10
257.9056653899
 20
-69.7556245128
 10
258.6820357439
 20
-68.9438418768
 10
259.4901968178
 20
-68.2222935935
 10
260.3188038014
 20
-67.601108619
 10
261.1562248692
 20
-67.0890070287
 10
261.9907044649
 20
-66.6931776064
 10
262.8105283243
 20
-66.4191769295
 10
263.6041879174
 20
-66.2708513669
 10
264.3605420032
 20
-66.2502830843
 10
265.0689730284
 20
-66.3577608155
 10
265.7195361743
 20
-66.5917758085
 10
266.3030989603
 20
-66.949043006
 10
266.811469444
 20
-67.4245471595
 10
267.2375112184
 20
-68.011613233
 10
267.5752435907
 20
-68.7020001058
 10
267.8199255388
 20
-69.4860162596
 10
267.9681222645
 20
-70.352655826
 10
268.0177534105
 20
-71.2897530854
  0
LINE
  5
111
330
1F
100
AcDbEntity
  8
0
  6
Continuous
 62
     7
370
    25
100
AcDbLine
 10
309.8958244252
 20
-33.3667947386
 30
0.0
 11
309.7580952803
 21
-33.2855489141
 31
0.0
  0
LINE
  5
112
330
1F
100
AcDbEntity
  8
0
  6
Continuous
 62
     7
370
    25
100
AcDbLine
 10
284.2601675981
 20
-77.4540408955
 30
0.0
 11
284.3082718945
 21
-77.4816021714
 31
0.0
  0
LWPOLYLINE
  5
113
330
1F
100
AcDbEntity
  8
0
  6
Continuous
 62
     1
370
    25
100
AcDbPolyline
 90
       53
 70
   128
 43
0.0
 10
346.5066061222
 20
-26.795510991
 10
346.4581593067
 20
-29.3517620417
 10
346.312913697
 20
-31.9589446134
 10
346.0711536182
 20
-34.611955024
 10
345.733352327
 20
-37.305599881
 10
345.3001710853
 20
-40.034606248
 10
344.7724578658
 20
-42.7936319669
 10
344.1512456919
 20
-45.5772761154
 10
343.4377506155
 20
-48.3800895793
 10
342.6333693367
 20
-51.1965857195
 10
341.7396764698
 20
-54.0212511127
 10
340.7584214604
 20
-56.8485563438
 10
339.6915251613
 20
-59.6729668298
 10
338.5410760722
 20
-62.4889536548
 10
337.3093262511
 20
-65.2910043922
 10
335.9986869061
 20
-68.0736338961
 10
334.6117236754
 20
-70.8313950386
 10
333.1511516045
 20
-73.5588893727
 10
331.619829832
 20
-76.2507777003
 10
330.020755992
 20
-78.9017905235
 10
328.3570603467
 20
-81.5067383602
 10
326.6319996585
 20
-84.0605219027
 10
324.8489508147
 20
-86.5581419998
 10
323.0114042171
 20
-88.9947094428
 10
321.1229569494
 20
-91.3654545366
 10
319.1873057359
 20
-93.6657364363
 10
317.2082397048
 20
-95.8910522321
 10
315.1896329706
 20
-98.0370457638
 10
313.135437051
 20
-100.0995161483
 10
311.0496731308
 20
-102.0744260029
 10
308.936424191
 20
-103.9579093489
 10
306.7998270154
 20
-105.7462791792
 10
304.6440640935
 20
-107.4360346758
 10
302.4733554324
 20
-109.023868063
 10
300.2919502962
 20
-110.5066710825
 10
298.104118888
 20
-111.8815410776
 10
295.9141439904
 20
-113.1457866757
 10
293.7263125821
 20
-114.2969330568
 10
291.544907446
 20
-115.3327267978
 10
289.3741987848
 20
-116.2511402837
 10
287.2184358629
 20
-117.050375677
 10
285.0818386874
 20
-117.728868437
 10
282.9685897475
 20
-118.2852903821
 10
280.8828258274
 20
-118.7185522903
 10
278.8286299077
 20
-119.0278060311
 10
276.8100231736
 20
-119.2124462257
 10
274.8309571424
 20
-119.2721114323
 10
272.895305929
 20
-119.2066848535
 10
271.0068586613
 20
-119.0162945647
 10
269.1693120637
 20
-118.7013132641
 10
267.3862632198
 20
-118.2623575422
 10
265.6612025316
 20
-117.7002866755
 10
265.451674827
 20
-117.6221265811
  0
LWPOLYLINE
  5
114
330
1F
100
AcDbEntity
  8
0
  6
Continuous
 62
     1
370
    25
100
AcDbPolyline
 90
       17
 70
   128
 43
0.0
 10
334.9835210336
 20
3.2139582393
 10
335.9986869061
 20
2.3504266279
 10
337.3093262511
 20
1.0810291016
 10
338.5410760722
 20
-0.2988735636
 10
339.6915251613
 20
-1.7865801435
 10
340.7584214604
 20
-3.3791783825
 10
341.7396764698
 20
-5.0735506948
 10
342.6333693367
 20
-6.8663802671
 10
343.4377506155
 20
-8.7541575513
 10
344.1512456919
 20
-10.7331871347
 10
344.7724578658
 20
-12.7995949739
 10
345.3001710853
 20
-14.9493359786
 10
345.733352327
 20
-17.1782019297
 10
346.0711536182
 20
-19.4818297176
 10
346.312913697
 20
-21.8557098827
 10
346.4581593067
 20
-24.295195443
 10
346.5066061222
 20
-26.795510991
  0
LWPOLYLINE
  5
115
330
1F
100
AcDbEntity
  8
0
  6
Continuous
 62
     1
370
    25
100
AcDbPolyline
 90
       17
 70
   128
 43
0.0
 10
356.4061010589
 20
-32.5103677738
 10
356.3576542433
 20
-30.0100522258
 10
356.2124086336
 20
-27.5705666655
 10
355.9706485548
 20
-25.1966865004
 10
355.6328472636
 20
-22.8930587125
 10
355.1996660219
 20
-20.6641927613
 10
354.6719528024
 20
-18.5144517566
 10
354.0507406285
 20
-16.4480439174
 10
353.3372455521
 20
-14.4690143341
 10
352.5328642733
 20
-12.5812370499
 10
351.6391714064
 20
-10.7884074776
 10
350.657916397
 20
-9.0940351652
 10
349.5910200979
 20
-7.5014369262
 10
348.4405710088
 20
-6.0137303464
 10
347.2088211877
 20
-4.6338276812
 10
345.8981818427
 20
-3.3644301549
 10
345.071371671
 20
-2.6539046768
  0
LWPOLYLINE
  5
116
330
1F
100
AcDbEntity
  8
0
  6
Continuous
 62
     1
370
    25
100
AcDbPolyline
 90
       53
 70
   128
 43
0.0
 10
275.3347328946
 20
-123.3307575635
 10
275.5606974683
 20
-123.4151434583
 10
277.2857581565
 20
-123.977214325
 10
279.0688070003
 20
-124.4161700469
 10
280.9063535979
 20
-124.7311513475
 10
282.7948008656
 20
-124.9215416362
 10
284.7304520791
 20
-124.9869682151
 10
286.7095181102
 20
-124.9273030085
 10
288.7281248443
 20
-124.7426628139
 10
290.782320764
 20
-124.4334090731
 10
292.8680846841
 20
-124.0001471649
 10
294.981333624
 20
-123.4437252197
 10
297.1179307996
 20
-122.7652324598
 10
299.2736937215
 20
-121.9659970665
 10
301.4444023826
 20
-121.0475835805
 10
303.6258075187
 20
-120.0117898396
 10
305.813638927
 20
-118.8606434585
 10
308.0036138246
 20
-117.5963978603
 10
310.1914452329
 20
-116.2215278652
 10
312.372850369
 20
-114.7387248458
 10
314.5435590301
 20
-113.1508914586
 10
316.699321952
 20
-111.4611359619
 10
318.8359191276
 20
-109.6727661316
 10
320.9491680675
 20
-107.7892827856
 10
323.0349319876
 20
-105.814372931
 10
325.0891279073
 20
-103.7519025465
 10
327.1077346414
 20
-101.6059090149
 10
329.0868006725
 20
-99.3805932191
 10
331.022451886
 20
-97.0803113194
 10
332.9108991537
 20
-94.7095662256
 10
334.7484457513
 20
-92.2729987825
 10
336.5314945951
 20
-89.7753786855
 10
338.2565552833
 20
-87.221595143
 10
339.9202509286
 20
-84.6166473063
 10
341.5193247686
 20
-81.9656344831
 10
343.0506465412
 20
-79.2737461555
 10
344.511218612
 20
-76.5462518213
 10
345.8981818427
 20
-73.7884906788
 10
347.2088211877
 20
-71.0058611749
 10
348.4405710088
 20
-68.2038104375
 10
349.5910200979
 20
-65.3878236126
 10
350.657916397
 20
-62.5634131265
 10
351.6391714064
 20
-59.7361078955
 10
352.5328642733
 20
-56.9114425023
 10
353.3372455521
 20
-54.094946362
 10
354.0507406285
 20
-51.2921328982
 10
354.6719528024
 20
-48.5084887497
 10
355.1996660219
 20
-45.7494630308
 10
355.6328472636
 20
-43.0204566637
 10
355.9706485548
 20
-40.3268118068
 10
356.2124086336
 20
-37.6738013962
 10
356.3576542433
 20
-35.0666188244
 10
356.4061010589
 20
-32.5103677738
  0
LWPOLYLINE
  5
117
330
1F
100
AcDbEntity
  8
0
  6
Continuous
 62
     1
370
    25
100
AcDbPolyline
 90
       27
 70
   128
 43
0.0
 10
336.8887854609
 20
-27.1795573313
 10
336.5049800069
 20
-26.9885608836
 10
335.8796996611
 20
-26.8042601928
 10
335.2011320246
 20
-26.7435860207
 10
334.4795634908
 20
-26.807458126
 10
333.7259323032
 20
-26.9949082727
 10
332.9516627425
 20
-27.3030949076
 10
332.1684919459
 20
-27.7273462354
 10
331.3882919844
 20
-28.2612310386
 10
330.6228898942
 20
-28.8966561677
 10
329.8838883906
 20
-29.6239892254
 10
329.1824899832
 20
-30.432204584
 10
328.5293271569
 20
-31.3090505225
 10
327.9343011943
 20
-32.2412349504
 10
327.4064320825
 20
-33.2146269018
 10
326.9537217791
 20
-34.2144707471
 10
326.5830329109
 20
-35.2256098726
 10
326.2999847433
 20
-36.2327164401
 10
326.1088679979
 20
-37.2205237404
 10
326.0125798098
 20
-38.1740576219
 10
326.0125798098
 20
-39.0788634828
 10
326.1088679979
 20
-39.9212253887
 10
326.2999847433
 20
-40.6883739917
 10
326.5830329109
 20
-41.3686801009
 10
326.9537217791
 20
-41.9518309693
 10
327.4064320825
 20
-42.428986624
 10
327.891929822
 20
-42.769485483
  0
LWPOLYLINE
  5
118
330
1F
100
AcDbEntity
  8
0
  6
Continuous
 62
     1
370
    25
100
AcDbPolyline
 90
       27
 70
   128
 43
0.0
 10
301.5334464015
 20
-88.4168007212
 10
301.1496409475
 20
-88.2258042734
 10
300.5243606018
 20
-88.0415035826
 10
299.8457929652
 20
-87.9808294105
 10
299.1242244314
 20
-88.0447015159
 10
298.3705932439
 20
-88.2321516625
 10
297.5963236832
 20
-88.5403382974
 10
296.8131528866
 20
-88.9645896253
 10
296.0329529251
 20
-89.4984744284
 10
295.2675508348
 20
-90.1338995575
 10
294.5285493312
 20
-90.8612326152
 10
293.8271509238
 20
-91.6694479738
 10
293.1739880975
 20
-92.5462939124
 10
292.5789621349
 20
-93.4784783402
 10
292.0510930231
 20
-94.4518702916
 10
291.5983827198
 20
-95.4517141369
 10
291.2276938516
 20
-96.4628532625
 10
290.944645684
 20
-97.4699598299
 10
290.7535289386
 20
-98.4577671302
 10
290.6572407505
 20
-99.4113010117
 10
290.6572407505
 20
-100.3161068727
 10
290.7535289386
 20
-101.1584687786
 10
290.944645684
 20
-101.9256173815
 10
291.2276938516
 20
-102.6059234908
 10
291.5983827198
 20
-103.1890743591
 10
292.0510930231
 20
-103.6662300138
 10
292.5365907627
 20
-104.0067288728
  0
LWPOLYLINE
  5
119
330
1F
100
AcDbEntity
  8
0
  6
Continuous
 62
     1
370
    25
100
AcDbPolyline
 90
       45
 70
   128
 43
0.0
 10
309.7580952803
 20
-33.2855489141
 10
309.5241379764
 20
-33.1553559572
 10
308.543218287
 20
-32.7066984285
 10
307.5007592538
 20
-32.3789583251
 10
306.4023228467
 20
-32.1738842825
 10
305.2537696993
 20
-32.0925704592
 10
304.0612278395
 20
-32.1354506998
 10
302.8310599942
 20
-32.3022962196
 10
301.5698296411
 20
-32.5922168256
 10
300.2842659897
 20
-33.0036656658
 10
298.9812280785
 20
-33.5344474828
 10
297.6676681784
 20
-34.1817303258
 10
296.3505946999
 20
-34.9420606609
 10
295.0370347999
 20
-35.8113817966
 10
293.7339968886
 20
-36.7850555287
 10
292.4484332373
 20
-37.8578868865
 10
291.1872028842
 20
-39.0241518505
 10
289.9570350389
 20
-40.2776278925
 10
288.7644931791
 20
-41.6116271755
 10
287.6159400317
 20
-43.0190322361
 10
286.5175036246
 20
-44.4923339594
 10
285.4750445914
 20
-46.0236716432
 10
284.494124902
 20
-47.6048749384
 10
283.5799781873
 20
-49.2275074413
 10
282.7374818157
 20
-50.8829117055
 10
281.9711308698
 20
-52.5622554328
 10
281.2850141635
 20
-54.256578598
 10
280.6827924262
 20
-55.9568412539
 10
280.1676787715
 20
-57.6539717634
 10
279.7424215537
 20
-59.3389152012
 10
279.4092897039
 20
-61.0026816648
 10
279.1700606247
 20
-62.6363942403
 10
279.0260107069
 20
-64.2313363644
 10
278.9779085189
 20
-65.7789983306
 10
279.0260107069
 20
-67.2711226927
 10
279.1700606247
 20
-68.6997483217
 10
279.4092897039
 20
-70.0572528818
 10
279.7424215537
 20
-71.3363934986
 10
280.1676787715
 20
-72.5303454037
 10
280.6827924262
 20
-73.6327383469
 10
281.2850141635
 20
-74.637690585
 10
281.9711308698
 20
-75.5398402629
 10
282.7374818157
 20
-76.3343740218
 10
283.5799781873
 20
-77.0170526803
 10
284.2601675981
 20
-77.4540408955
  0
LWPOLYLINE
  5
11A
330
1F
100
AcDbEntity
  8
0
  6
Continuous
 62
     1
370
    25
100
AcDbPolyline
 90
       34
 70
   128
 43
0.0
 10
290.1578674552
 20
-78.461097934
 10
290.0671737081
 20
-78.2452021864
 10
289.6419164903
 20
-77.0512502814
 10
289.3087846405
 20
-75.7721096645
 10
289.0695555614
 20
-74.4146051045
 10
288.9255056435
 20
-72.9859794755
 10
288.8774034555
 20
-71.4938551133
 10
288.9255056435
 20
-69.9461931471
 10
289.0695555614
 20
-68.3512510231
 10
289.3087846405
 20
-66.7175384475
 10
289.6419164903
 20
-65.0537719839
 10
290.0671737081
 20
-63.3688285462
 10
290.5822873628
 20
-61.6716980366
 10
291.1845091001
 20
-59.9714353808
 10
291.8706258064
 20
-58.2771122156
 10
292.6369767523
 20
-56.5977684882
 10
293.4794731239
 20
-54.9423642241
 10
294.3936198386
 20
-53.3197317212
 10
295.374539528
 20
-51.738528426
 10
296.4169985612
 20
-50.2071907422
 10
297.5154349683
 20
-48.7338890189
 10
298.6639881157
 20
-47.3264839583
 10
299.8565299755
 20
-45.9924846753
 10
301.0866978208
 20
-44.7390086333
 10
302.3479281739
 20
-43.5727436693
 10
303.6334918253
 20
-42.4999123115
 10
304.9365297365
 20
-41.5262385794
 10
306.2500896365
 20
-40.6569174436
 10
307.5671631151
 20
-39.8965871086
 10
308.8807230151
 20
-39.2493042656
 10
310.1837609263
 20
-38.7185224486
 10
311.4693245777
 20
-38.3070736083
 10
312.7305549308
 20
-38.0171530024
 10
313.5766308125
 20
-37.8895586781
  0
LWPOLYLINE
  5
11B
330
1F
100
AcDbEntity
  8
0
  6
Continuous
 62
     1
370
    25
100
AcDbPolyline
 90
       27
 70
   128
 43
0.0
 10
301.5334464015
 20
-6.7627195326
 10
301.1496409475
 20
-6.5717230848
 10
300.5243606018
 20
-6.387422394
 10
299.8457929652
 20
-6.326748222
 10
299.1242244314
 20
-6.3906203273
 10
298.3705932439
 20
-6.578070474
 10
297.5963236832
 20
-6.8862571088
 10
296.8131528866
 20
-7.3105084367
 10
296.0329529251
 20
-7.8443932399
 10
295.2675508348
 20
-8.4798183689
 10
294.5285493312
 20
-9.2071514266
 10
293.8271509238
 20
-10.0153667853
 10
293.1739880975
 20
-10.8922127238
 10
292.5789621349
 20
-11.8243971516
 10
292.0510930231
 20
-12.7977891031
 10
291.5983827198
 20
-13.7976329483
 10
291.2276938516
 20
-14.8087720739
 10
290.944645684
 20
-15.8158786413
 10
290.7535289386
 20
-16.8036859417
 10
290.6572407505
 20
-17.7572198232
 10
290.6572407505
 20
-18.6620256841
 10
290.7535289386
 20
-19.50438759
 10
290.944645684
 20
-20.271536193
 10
291.2276938516
 20
-20.9518423022
 10
291.5983827198
 20
-21.5349931705
 10
292.0510930231
 20
-22.0121488253
 10
292.5365907627
 20
-22.3526476843
  0
LWPOLYLINE
  5
11C
330
1F
100
AcDbEntity
  8
0
  6
Continuous
 62
     1
370
    25
100
AcDbPolyline
 90
       27
 70
   128
 43
0.0
 10
266.1781073422
 20
-67.9999629224
 10
265.7943018882
 20
-67.8089664747
 10
265.1690215425
 20
-67.6246657839
 10
264.4904539059
 20
-67.5639916118
 10
263.7688853721
 20
-67.6278637171
 10
263.0152541846
 20
-67.8153138638
 10
262.2409846239
 20
-68.1235004987
 10
261.4578138273
 20
-68.5477518266
 10
260.6776138658
 20
-69.0816366297
 10
259.9122117755
 20
-69.7170617588
 10
259.1732102719
 20
-70.4443948165
 10
258.4718118645
 20
-71.2526101751
 10
257.8186490382
 20
-72.1294561137
 10
257.2236230756
 20
-73.0616405415
 10
256.6957539638
 20
-74.0350324929
 10
256.2430436605
 20
-75.0348763382
 10
255.8723547923
 20
-76.0460154637
 10
255.5893066246
 20
-77.0531220312
 10
255.3981898793
 20
-78.0409293315
 10
255.3019016912
 20
-78.994463213
 10
255.3019016912
 20
-79.899269074
 10
255.3981898793
 20
-80.7416309798
 10
255.5893066246
 20
-81.5087795828
 10
255.8723547923
 20
-82.189085692
 10
256.2430436605
 20
-82.7722365604
 10
256.6957539638
 20
-83.2493922151
 10
257.1812517034
 20
-83.5898910741
  0
ENDSEC
  0
SECTION
  2
OBJECTS
  0
DICTIONARY
  5
C
330
0
100
AcDbDictionary
281
     1
  3
ACAD_GROUP
350
D
  3
ACAD_LAYOUT
350
1A
  3
ACAD_MLINESTYLE
350
17
  3
ACAD_PLOTSETTINGS
350
19
  3
ACAD_PLOTSTYLENAME
350
E
  3
ACAD_SCALELIST
350
47
  3
DWGPROPS
350
11D
  0
DICTIONARY
  5
D
102
{ACAD_REACTORS
330
C
102
}
330
C
100
AcDbDictionary
281
     1
  0
DICTIONARY
  5
1A
102
{ACAD_REACTORS
330
C
102
}
330
C
100
AcDbDictionary
281
     1
  3
Layout1
350
1E
  3
Layout2
350
26
  3
Model
350
22
  0
DICTIONARY
  5
17
102
{ACAD_REACTORS
330
C
102
}
330
C
100
AcDbDictionary
281
     1
  3
Standard
350
18
  0
DICTIONARY
  5
19
102
{ACAD_REACTORS
330
C
102
}
330
C
100
AcDbDictionary
281
     1
  0
ACDBDICTIONARYWDFLT
  5
E
102
{ACAD_REACTORS
330
C
102
}
330
C
100
AcDbDictionary
281
     1
  3
Normal
350
F
100
AcDbDictionaryWithDefault
340
F
  0
DICTIONARY
  5
47
102
{ACAD_REACTORS
330
C
102
}
330
C
100
AcDbDictionary
281
     1
  3
A0
350
48
  3
A1
350
49
  3
A2
350
4A
  3
A3
350
4B
  3
A4
350
4C
  3
A5
350
4D
  3
A6
350
4E
  3
A7
350
4F
  3
A8
350
50
  3
A9
350
51
  3
B0
350
52
  3
B1
350
53
  3
B2
350
54
  3
B3
350
55
  3
B4
350
56
  3
B5
350
57
  3
B6
350
58
  3
B7
350
59
  3
B8
350
5A
  3
B9
350
5B
  3
C0
350
5C
  3
C1
350
5D
  3
C2
350
5E
  3
C3
350
5F
  3
C4
350
60
  3
C5
350
61
  3
C6
350
62
  3
C7
350
63
  3
C8
350
64
  3
C9
350
65
  3
D0
350
66
  3
D1
350
67
  3
D2
350
68
  0
XRECORD
  5
11D
102
{ACAD_REACTORS
330
C
102
}
330
C
100
AcDbXrecord
280
     1
  1
DWGPROPS COOKIE
  2

  3

  4

  6

  7

  8
b.kav
  9

300
=
301
=
302
=
303
=
304
=
305
=
306
=
307
=
308
=
309
=
 40
0.0
 41
2459741.467408275
 42
2459741.467409873
  1

 90
        0
  0
LAYOUT
  5
1E
102
{ACAD_REACTORS
330
1A
102
}
330
1A
100
AcDbPlotSettings
  1

  2
none_device
  4

  6

 40
0.0
 41
0.0
 42
0.0
 43
0.0
 44
0.0
 45
0.0
 46
0.0
 47
0.0
 48
0.0
 49
0.0
140
0.0
141
0.0
142
1.0
143
1.0
 70
   688
 72
     1
 73
     0
 74
     5
  7

 75
    16
147
1.0
148
0.0
149
0.0
100
AcDbLayout
  1
Layout1
 70
     1
 71
     1
 10
0.0
 20
0.0
 11
420.0
 21
297.0
 12
0.0
 22
0.0
 32
0.0
 14
1.0000000000E+20
 24
1.0000000000E+20
 34
1.0000000000E+20
 15
-1.0000000000E+20
 25
-1.0000000000E+20
 35
-1.0000000000E+20
146
0.0
 13
0.0
 23
0.0
 33
0.0
 16
1.0
 26
0.0
 36
0.0
 17
0.0
 27
1.0
 37
0.0
 76
     0
330
1B
  0
LAYOUT
  5
26
102
{ACAD_REACTORS
330
1A
102
}
330
1A
100
AcDbPlotSettings
  1

  2
none_device
  4

  6

 40
0.0
 41
0.0
 42
0.0
 43
0.0
 44
0.0
 45
0.0
 46
0.0
 47
0.0
 48
0.0
 49
0.0
140
0.0
141
0.0
142
1.0
143
1.0
 70
   688
 72
     1
 73
     0
 74
     5
  7

 75
    16
147
1.0
148
0.0
149
0.0
100
AcDbLayout
  1
Layout2
 70
     1
 71
     2
 10
0.0
 20
0.0
 11
0.0
 21
0.0
 12
0.0
 22
0.0
 32
0.0
 14
0.0
 24
0.0
 34
0.0
 15
0.0
 25
0.0
 35
0.0
146
0.0
 13
0.0
 23
0.0
 33
0.0
 16
1.0
 26
0.0
 36
0.0
 17
0.0
 27
1.0
 37
0.0
 76
     0
330
23
  0
LAYOUT
  5
22
102
{ACAD_REACTORS
330
1A
102
}
330
1A
100
AcDbPlotSettings
  1

  2
none_device
  4
Letter_(8.50_x_11.00_Inches)
  6

 40
6.35
 41
6.35
 42
6.35000508
 43
6.35000508
 44
215.9
 45
279.4
 46
0.0
 47
0.0
 48
0.0
 49
0.0
140
0.0
141
0.0
142
1.0
143
1.0
 70
  1712
 72
     1
 73
     0
 74
     0
  7

 75
     0
147
1.0
148
0.0
149
0.0
100
AcDbLayout
  1
Model
 70
     1
 71
     0
 10
0.0
 20
0.0
 11
279.4
 21
215.9
 12
0.0
 22
0.0
 32
0.0
 14
0.0
 24
0.0
 34
0.0
 15
279.4
 25
215.9
 35
0.0
146
0.0
 13
0.0
 23
0.0
 33
0.0
 16
1.0
 26
0.0
 36
0.0
 17
0.0
 27
1.0
 37
0.0
 76
     0
330
1F
331
29
  0
MLINESTYLE
  5
18
102
{ACAD_REACTORS
330
17
102
}
330
17
100
AcDbMlineStyle
  2
Standard
 70
     0
  3

 62
   256
 51
90.0
 52
90.0
 71
     2
 49
0.5
 62
   256
  6
BYLAYER
 49
-0.5
 62
   256
  6
BYLAYER
  0
ACDBPLACEHOLDER
  5
F
102
{ACAD_REACTORS
330
E
102
}
330
E
  0
SCALE
  5
48
102
{ACAD_REACTORS
330
47
102
}
330
47
100
AcDbScale
 70
     0
300
1:1
140
1.0
141
1.0
290
     1
  0
SCALE
  5
49
102
{ACAD_REACTORS
330
47
102
}
330
47
100
AcDbScale
 70
     0
300
1:2
140
1.0
141
2.0
290
     0
  0
SCALE
  5
4A
102
{ACAD_REACTORS
330
47
102
}
330
47
100
AcDbScale
 70
     0
300
1:4
140
1.0
141
4.0
290
     0
  0
SCALE
  5
4B
102
{ACAD_REACTORS
330
47
102
}
330
47
100
AcDbScale
 70
     0
300
1:5
140
1.0
141
5.0
290
     0
  0
SCALE
  5
4C
102
{ACAD_REACTORS
330
47
102
}
330
47
100
AcDbScale
 70
     0
300
1:8
140
1.0
141
8.0
290
     0
  0
SCALE
  5
4D
102
{ACAD_REACTORS
330
47
102
}
330
47
100
AcDbScale
 70
     0
300
1:10
140
1.0
141
10.0
290
     0
  0
SCALE
  5
4E
102
{ACAD_REACTORS
330
47
102
}
330
47
100
AcDbScale
 70
     0
300
1:16
140
1.0
141
16.0
290
     0
  0
SCALE
  5
4F
102
{ACAD_REACTORS
330
47
102
}
330
47
100
AcDbScale
 70
     0
300
1:20
140
1.0
141
20.0
290
     0
  0
SCALE
  5
50
102
{ACAD_REACTORS
330
47
102
}
330
47
100
AcDbScale
 70
     0
300
1:30
140
1.0
141
30.0
290
     0
  0
SCALE
  5
51
102
{ACAD_REACTORS
330
47
102
}
330
47
100
AcDbScale
 70
     0
300
1:40
140
1.0
141
40.0
290
     0
  0
SCALE
  5
52
102
{ACAD_REACTORS
330
47
102
}
330
47
100
AcDbScale
 70
     0
300
1:50
140
1.0
141
50.0
290
     0
  0
SCALE
  5
53
102
{ACAD_REACTORS
330
47
102
}
330
47
100
AcDbScale
 70
     0
300
1:100
140
1.0
141
100.0
290
     0
  0
SCALE
  5
54
102
{ACAD_REACTORS
330
47
102
}
330
47
100
AcDbScale
 70
     0
300
2:1
140
2.0
141
1.0
290
     0
  0
SCALE
  5
55
102
{ACAD_REACTORS
330
47
102
}
330
47
100
AcDbScale
 70
     0
300
4:1
140
4.0
141
1.0
290
     0
  0
SCALE
  5
56
102
{ACAD_REACTORS
330
47
102
}
330
47
100
AcDbScale
 70
     0
300
8:1
140
8.0
141
1.0
290
     0
  0
SCALE
  5
57
102
{ACAD_REACTORS
330
47
102
}
330
47
100
AcDbScale
 70
     0
300
10:1
140
10.0
141
1.0
290
     0
  0
SCALE
  5
58
102
{ACAD_REACTORS
330
47
102
}
330
47
100
AcDbScale
 70
     0
300
100:1
140
100.0
141
1.0
290
     0
  0
SCALE
  5
59
102
{ACAD_REACTORS
330
47
102
}
330
47
100
AcDbScale
 70
     0
300
1/128" = 1'-0"
140
0.0078125
141
12.0
290
     0
  0
SCALE
  5
5A
102
{ACAD_REACTORS
330
47
102
}
330
47
100
AcDbScale
 70
     0
300
1/64" = 1'-0"
140
0.015625
141
12.0
290
     0
  0
SCALE
  5
5B
102
{ACAD_REACTORS
330
47
102
}
330
47
100
AcDbScale
 70
     0
300
1/32" = 1'-0"
140
0.03125
141
12.0
290
     0
  0
SCALE
  5
5C
102
{ACAD_REACTORS
330
47
102
}
330
47
100
AcDbScale
 70
     0
300
1/16" = 1'-0"
140
0.0625
141
12.0
290
     0
  0
SCALE
  5
5D
102
{ACAD_REACTORS
330
47
102
}
330
47
100
AcDbScale
 70
     0
300
3/32" = 1'-0"
140
0.09375
141
12.0
290
     0
  0
SCALE
  5
5E
102
{ACAD_REACTORS
330
47
102
}
330
47
100
AcDbScale
 70
     0
300
1/8" = 1'-0"
140
0.125
141
12.0
290
     0
  0
SCALE
  5
5F
102
{ACAD_REACTORS
330
47
102
}
330
47
100
AcDbScale
 70
     0
300
3/16" = 1'-0"
140
0.1875
141
12.0
290
     0
  0
SCALE
  5
60
102
{ACAD_REACTORS
330
47
102
}
330
47
100
AcDbScale
 70
     0
300
1/4" = 1'-0"
140
0.25
141
12.0
290
     0
  0
SCALE
  5
61
102
{ACAD_REACTORS
330
47
102
}
330
47
100
AcDbScale
 70
     0
300
3/8" = 1'-0"
140
0.375
141
12.0
290
     0
  0
SCALE
  5
62
102
{ACAD_REACTORS
330
47
102
}
330
47
100
AcDbScale
 70
     0
300
1/2" = 1'-0"
140
0.5
141
12.0
290
     0
  0
SCALE
  5
63
102
{ACAD_REACTORS
330
47
102
}
330
47
100
AcDbScale
 70
     0
300
3/4" = 1'-0"
140
0.75
141
12.0
290
     0
  0
SCALE
  5
64
102
{ACAD_REACTORS
330
47
102
}
330
47
100
AcDbScale
 70
     0
300
1" = 1'-0"
140
1.0
141
12.0
290
     0
  0
SCALE
  5
65
102
{ACAD_REACTORS
330
47
102
}
330
47
100
AcDbScale
 70
     0
300
1-1/2" = 1'-0"
140
1.5
141
12.0
290
     0
  0
SCALE
  5
66
102
{ACAD_REACTORS
330
47
102
}
330
47
100
AcDbScale
 70
     0
300
3" = 1'-0"
140
3.0
141
12.0
290
     0
  0
SCALE
  5
67
102
{ACAD_REACTORS
330
47
102
}
330
47
100
AcDbScale
 70
     0
300
6" = 1'-0"
140
6.0
141
12.0
290
     0
  0
SCALE
  5
68
102
{ACAD_REACTORS
330
47
102
}
330
47
100
AcDbScale
 70
     0
300
1'-0" = 1'-0"
140
12.0
141
12.0
290
     0
  0
ENDSEC
  0
EOF
